  0
SECTION
  2
HEADER
  9
$ACADVER
  1
AC1009
  9
$INSUNITS
  70
13
  9
$EXTMIN
  10
0
  20
0
  9
$EXTMAX
  10
500
  20
500
  0
ENDSEC
  0
SECTION
  2
TABLES
  0
TABLE
  2
LTYPE
  70
1
  0
LTYPE
  2
CONTINUOUS
  70
64
  3
Solid line
  72
65
  73
0
  40
0
  0
ENDTAB
  0
TABLE
  2
LAYER
  70
3
  0
LAYER
  2
ohmic
  70
0
  62
13
  6
CONTINUOUS
  0
LAYER
  2
met1
  70
0
  62
34
  6
CONTINUOUS
  0
LAYER
  2
backvia
  70
0
  62
7
  6
CONTINUOUS
  0
ENDTAB
  0
ENDSEC
  0
SECTION
  2
BLOCKS
  0
ENDSEC
  0
SECTION
  2
ENTITIES
  0
POLYLINE
  8
ohmic
  70
1
  66
1
  0
VERTEX
  8
ohmic
  10
0
  20
500
  0
VERTEX
  8
ohmic
  10
0
  20
0
  0
VERTEX
  8
ohmic
  10
500
  20
0
  0
VERTEX
  8
ohmic
  10
500
  20
500
  0
VERTEX
  8
ohmic
  10
0
  20
500
  0
SEQEND
  0
POLYLINE
  8
met1
  70
1
  66
1
  0
VERTEX
  8
met1
  10
350.5
  20
123
  0
VERTEX
  8
met1
  10
381.5
  20
123
  0
VERTEX
  8
met1
  10
381.5
  20
51
  0
VERTEX
  8
met1
  10
453.5
  20
51
  0
VERTEX
  8
met1
  10
453.5
  20
173
  0
VERTEX
  8
met1
  10
350.5
  20
173
  0
VERTEX
  8
met1
  10
350.5
  20
123
  0
SEQEND
  0
POLYLINE
  8
met1
  70
1
  66
1
  0
VERTEX
  8
met1
  10
381.5
  20
376
  0
VERTEX
  8
met1
  10
350.5
  20
376
  0
VERTEX
  8
met1
  10
350.5
  20
326
  0
VERTEX
  8
met1
  10
453.5
  20
326
  0
VERTEX
  8
met1
  10
453.5
  20
448
  0
VERTEX
  8
met1
  10
381.5
  20
448
  0
VERTEX
  8
met1
  10
381.5
  20
376
  0
SEQEND
  0
POLYLINE
  8
met1
  70
1
  66
1
  0
VERTEX
  8
met1
  10
149.5
  20
376
  0
VERTEX
  8
met1
  10
118.5
  20
376
  0
VERTEX
  8
met1
  10
118.5
  20
448
  0
VERTEX
  8
met1
  10
46.5
  20
448
  0
VERTEX
  8
met1
  10
46.5
  20
326
  0
VERTEX
  8
met1
  10
149.5
  20
326
  0
VERTEX
  8
met1
  10
149.5
  20
376
  0
SEQEND
  0
POLYLINE
  8
met1
  70
1
  66
1
  0
VERTEX
  8
met1
  10
118.5
  20
123
  0
VERTEX
  8
met1
  10
149.5
  20
123
  0
VERTEX
  8
met1
  10
149.5
  20
173
  0
VERTEX
  8
met1
  10
46.5
  20
173
  0
VERTEX
  8
met1
  10
46.5
  20
51
  0
VERTEX
  8
met1
  10
118.5
  20
51
  0
VERTEX
  8
met1
  10
118.5
  20
123
  0
SEQEND
  0
POLYLINE
  8
met1
  70
1
  66
1
  0
VERTEX
  8
met1
  10
455
  20
287
  0
VERTEX
  8
met1
  10
380
  20
287
  0
VERTEX
  8
met1
  10
380
  20
212
  0
VERTEX
  8
met1
  10
455
  20
212
  0
VERTEX
  8
met1
  10
455
  20
287
  0
SEQEND
  0
POLYLINE
  8
met1
  70
1
  66
1
  0
VERTEX
  8
met1
  10
45
  20
212
  0
VERTEX
  8
met1
  10
120
  20
212
  0
VERTEX
  8
met1
  10
120
  20
287
  0
VERTEX
  8
met1
  10
45
  20
287
  0
VERTEX
  8
met1
  10
45
  20
212
  0
SEQEND
  0
POLYLINE
  8
met1
  70
1
  66
1
  0
VERTEX
  8
met1
  10
263.8
  20
430.6
  0
VERTEX
  8
met1
  10
263.8
  20
410.8
  0
VERTEX
  8
met1
  10
271.909
  20
410.8
  0
VERTEX
  8
met1
  10
275.095
  20
411.925
  0
VERTEX
  8
met1
  10
277.388
  20
414.027
  0
VERTEX
  8
met1
  10
278.507
  20
416.078
  0
VERTEX
  8
met1
  10
279.55
  20
419.208
  0
VERTEX
  8
met1
  10
279.55
  20
422.208
  0
VERTEX
  8
met1
  10
278.51
  20
425.155
  0
VERTEX
  8
met1
  10
277.43
  20
427.316
  0
VERTEX
  8
met1
  10
275.11
  20
429.636
  0
VERTEX
  8
met1
  10
272.024
  20
430.6
  0
VERTEX
  8
met1
  10
269.95
  20
430.6
  0
VERTEX
  8
met1
  10
269.95
  20
427
  0
VERTEX
  8
met1
  10
271.476
  20
427
  0
VERTEX
  8
met1
  10
273.191
  20
426.464
  0
VERTEX
  8
met1
  10
274.471
  20
425.184
  0
VERTEX
  8
met1
  10
275.19
  20
423.745
  0
VERTEX
  8
met1
  10
275.95
  20
421.592
  0
VERTEX
  8
met1
  10
275.95
  20
419.792
  0
VERTEX
  8
met1
  10
275.194
  20
417.522
  0
VERTEX
  8
met1
  10
274.512
  20
416.273
  0
VERTEX
  8
met1
  10
273.205
  20
415.075
  0
VERTEX
  8
met1
  10
271.292
  20
414.4
  0
VERTEX
  8
met1
  10
267.4
  20
414.4
  0
VERTEX
  8
met1
  10
267.4
  20
430.6
  0
VERTEX
  8
met1
  10
263.8
  20
430.6
  0
SEQEND
  0
POLYLINE
  8
met1
  70
1
  66
1
  0
VERTEX
  8
met1
  10
300.2
  20
418.16
  0
VERTEX
  8
met1
  10
298.996
  20
420.367
  0
VERTEX
  8
met1
  10
298.344
  20
421.15
  0
VERTEX
  8
met1
  10
298.996
  20
421.933
  0
VERTEX
  8
met1
  10
300.2
  20
424.14
  0
VERTEX
  8
met1
  10
300.2
  20
425.889
  0
VERTEX
  8
met1
  10
299.118
  20
428.27
  0
VERTEX
  8
met1
  10
297.655
  20
429.489
  0
VERTEX
  8
met1
  10
294.509
  20
430.6
  0
VERTEX
  8
met1
  10
290.6
  20
430.6
  0
VERTEX
  8
met1
  10
290.6
  20
427
  0
VERTEX
  8
met1
  10
293.892
  20
427
  0
VERTEX
  8
met1
  10
295.845
  20
426.311
  0
VERTEX
  8
met1
  10
296.183
  20
426.03
  0
VERTEX
  8
met1
  10
296.6
  20
425.111
  0
VERTEX
  8
met1
  10
296.6
  20
425.06
  0
VERTEX
  8
met1
  10
296.004
  20
423.967
  0
VERTEX
  8
met1
  10
295.695
  20
423.596
  0
VERTEX
  8
met1
  10
293.758
  20
422.95
  0
VERTEX
  8
met1
  10
288.2
  20
422.95
  0
VERTEX
  8
met1
  10
288.2
  20
430.6
  0
VERTEX
  8
met1
  10
284.6
  20
430.6
  0
VERTEX
  8
met1
  10
284.6
  20
410.8
  0
VERTEX
  8
met1
  10
288.2
  20
410.8
  0
VERTEX
  8
met1
  10
288.2
  20
419.35
  0
VERTEX
  8
met1
  10
293.758
  20
419.35
  0
VERTEX
  8
met1
  10
295.695
  20
418.704
  0
VERTEX
  8
met1
  10
296.004
  20
418.333
  0
VERTEX
  8
met1
  10
296.6
  20
417.24
  0
VERTEX
  8
met1
  10
296.6
  20
416.289
  0
VERTEX
  8
met1
  10
296.183
  20
415.37
  0
VERTEX
  8
met1
  10
295.845
  20
415.089
  0
VERTEX
  8
met1
  10
293.892
  20
414.4
  0
VERTEX
  8
met1
  10
290.6
  20
414.4
  0
VERTEX
  8
met1
  10
290.6
  20
410.8
  0
VERTEX
  8
met1
  10
294.509
  20
410.8
  0
VERTEX
  8
met1
  10
297.655
  20
411.911
  0
VERTEX
  8
met1
  10
299.118
  20
413.13
  0
VERTEX
  8
met1
  10
300.2
  20
415.511
  0
VERTEX
  8
met1
  10
300.2
  20
418.16
  0
SEQEND
  0
POLYLINE
  8
met1
  70
1
  66
1
  0
VERTEX
  8
met1
  10
220.957
  20
436.3
  0
VERTEX
  8
met1
  10
226.014
  20
436.3
  0
VERTEX
  8
met1
  10
225.803
  20
436.736
  0
VERTEX
  8
met1
  10
225.67
  20
437.032
  0
VERTEX
  8
met1
  10
225.538
  20
437.328
  0
VERTEX
  8
met1
  10
225.433
  20
437.577
  0
VERTEX
  8
met1
  10
225.415
  20
437.64
  0
VERTEX
  8
met1
  10
225.388
  20
437.702
  0
VERTEX
  8
met1
  10
225.362
  20
437.764
  0
VERTEX
  8
met1
  10
225.344
  20
437.826
  0
VERTEX
  8
met1
  10
225.239
  20
438.107
  0
VERTEX
  8
met1
  10
225.124
  20
438.45
  0
VERTEX
  8
met1
  10
225.01
  20
438.792
  0
VERTEX
  8
met1
  10
224.833
  20
439.291
  0
VERTEX
  8
met1
  10
222.085
  20
447.515
  0
VERTEX
  8
met1
  10
223.935
  20
450.007
  0
VERTEX
  8
met1
  10
224.129
  20
450.256
  0
VERTEX
  8
met1
  10
224.349
  20
450.443
  0
VERTEX
  8
met1
  10
224.569
  20
450.63
  0
VERTEX
  8
met1
  10
224.798
  20
450.755
  0
VERTEX
  8
met1
  10
224.851
  20
450.786
  0
VERTEX
  8
met1
  10
224.895
  20
450.817
  0
VERTEX
  8
met1
  10
224.939
  20
450.848
  0
VERTEX
  8
met1
  10
224.992
  20
450.879
  0
VERTEX
  8
met1
  10
224.992
  20
450.942
  0
VERTEX
  8
met1
  10
221.204
  20
450.942
  0
VERTEX
  8
met1
  10
221.186
  20
450.817
  0
VERTEX
  8
met1
  10
221.168
  20
450.677
  0
VERTEX
  8
met1
  10
221.151
  20
450.537
  0
VERTEX
  8
met1
  10
221.133
  20
450.412
  0
VERTEX
  8
met1
  10
221.063
  20
450.038
  0
VERTEX
  8
met1
  10
220.895
  20
449.633
  0
VERTEX
  8
met1
  10
220.728
  20
449.228
  0
VERTEX
  8
met1
  10
220.323
  20
448.636
  0
VERTEX
  8
met1
  10
218.331
  20
445.802
  0
VERTEX
  8
met1
  10
218.331
  20
456.3
  0
VERTEX
  8
met1
  10
213.715
  20
456.3
  0
VERTEX
  8
met1
  10
213.732
  20
456.238
  0
VERTEX
  8
met1
  10
213.75
  20
456.191
  0
VERTEX
  8
met1
  10
213.768
  20
456.144
  0
VERTEX
  8
met1
  10
213.785
  20
456.082
  0
VERTEX
  8
met1
  10
213.944
  20
455.583
  0
VERTEX
  8
met1
  10
214.058
  20
454.945
  0
VERTEX
  8
met1
  10
214.173
  20
454.306
  0
VERTEX
  8
met1
  10
214.173
  20
452.935
  0
VERTEX
  8
met1
  10
214.173
  20
439.664
  0
VERTEX
  8
met1
  10
214.173
  20
438.294
  0
VERTEX
  8
met1
  10
214.058
  20
437.655
  0
VERTEX
  8
met1
  10
213.944
  20
437.017
  0
VERTEX
  8
met1
  10
213.785
  20
436.518
  0
VERTEX
  8
met1
  10
213.768
  20
436.456
  0
VERTEX
  8
met1
  10
213.75
  20
436.409
  0
VERTEX
  8
met1
  10
213.732
  20
436.362
  0
VERTEX
  8
met1
  10
213.715
  20
436.3
  0
VERTEX
  8
met1
  10
218.79
  20
436.3
  0
VERTEX
  8
met1
  10
218.772
  20
436.362
  0
VERTEX
  8
met1
  10
218.754
  20
436.409
  0
VERTEX
  8
met1
  10
218.737
  20
436.456
  0
VERTEX
  8
met1
  10
218.719
  20
436.518
  0
VERTEX
  8
met1
  10
218.56
  20
437.017
  0
VERTEX
  8
met1
  10
218.446
  20
437.655
  0
VERTEX
  8
met1
  10
218.331
  20
438.294
  0
VERTEX
  8
met1
  10
218.331
  20
439.664
  0
VERTEX
  8
met1
  10
218.331
  20
442.126
  0
VERTEX
  8
met1
  10
219.036
  20
443.122
  0
VERTEX
  8
met1
  10
220.957
  20
436.3
  0
SEQEND
  0
POLYLINE
  8
met1
  70
1
  66
1
  0
VERTEX
  8
met1
  10
190.526
  20
456.3
  0
VERTEX
  8
met1
  10
189.152
  20
456.3
  0
VERTEX
  8
met1
  10
188.412
  20
454.976
  0
VERTEX
  8
met1
  10
187.672
  20
453.652
  0
VERTEX
  8
met1
  10
187.672
  20
450.381
  0
VERTEX
  8
met1
  10
187.672
  20
442.157
  0
VERTEX
  8
met1
  10
187.672
  20
438.948
  0
VERTEX
  8
met1
  10
188.412
  20
437.624
  0
VERTEX
  8
met1
  10
189.152
  20
436.3
  0
VERTEX
  8
met1
  10
190.526
  20
436.3
  0
VERTEX
  8
met1
  10
197.504
  20
436.3
  0
VERTEX
  8
met1
  10
197.874
  20
440.35
  0
VERTEX
  8
met1
  10
197.804
  20
440.288
  0
VERTEX
  8
met1
  10
197.733
  20
440.225
  0
VERTEX
  8
met1
  10
197.663
  20
440.163
  0
VERTEX
  8
met1
  10
197.592
  20
440.101
  0
VERTEX
  8
met1
  10
197.275
  20
439.851
  0
VERTEX
  8
met1
  10
196.808
  20
439.727
  0
VERTEX
  8
met1
  10
196.341
  20
439.602
  0
VERTEX
  8
met1
  10
195.249
  20
439.602
  0
VERTEX
  8
met1
  10
192.817
  20
439.602
  0
VERTEX
  8
met1
  10
192.394
  20
439.602
  0
VERTEX
  8
met1
  10
192.183
  20
439.883
  0
VERTEX
  8
met1
  10
191.971
  20
440.163
  0
VERTEX
  8
met1
  10
191.971
  20
440.879
  0
VERTEX
  8
met1
  10
191.971
  20
451.658
  0
VERTEX
  8
met1
  10
191.971
  20
452.437
  0
VERTEX
  8
met1
  10
192.183
  20
452.717
  0
VERTEX
  8
met1
  10
192.394
  20
452.998
  0
VERTEX
  8
met1
  10
192.817
  20
452.998
  0
VERTEX
  8
met1
  10
195.936
  20
452.998
  0
VERTEX
  8
met1
  10
196.482
  20
452.998
  0
VERTEX
  8
met1
  10
196.835
  20
452.873
  0
VERTEX
  8
met1
  10
197.187
  20
452.749
  0
VERTEX
  8
met1
  10
197.504
  20
452.562
  0
VERTEX
  8
met1
  10
197.539
  20
452.562
  0
VERTEX
  8
met1
  10
197.583
  20
452.531
  0
VERTEX
  8
met1
  10
197.628
  20
452.499
  0
VERTEX
  8
met1
  10
197.663
  20
452.468
  0
VERTEX
  8
met1
  10
197.328
  20
456.3
  0
VERTEX
  8
met1
  10
190.526
  20
456.3
  0
SEQEND
  0
POLYLINE
  8
met1
  70
1
  66
1
  0
VERTEX
  8
met1
  10
236.27
  20
428.968
  0
VERTEX
  8
met1
  10
236.106
  20
429.215
  0
VERTEX
  8
met1
  10
232.747
  20
430.4
  0
VERTEX
  8
met1
  10
230.413
  20
430.4
  0
VERTEX
  8
met1
  10
227.02
  20
429.402
  0
VERTEX
  8
met1
  10
224.859
  20
426.063
  0
VERTEX
  8
met1
  10
223.855
  20
421.38
  0
VERTEX
  8
met1
  10
223.855
  20
419.22
  0
VERTEX
  8
met1
  10
224.619
  20
415.659
  0
VERTEX
  8
met1
  10
226.054
  20
413.44
  0
VERTEX
  8
met1
  10
228.097
  20
416.544
  0
VERTEX
  8
met1
  10
227.812
  20
416.984
  0
VERTEX
  8
met1
  10
227.255
  20
419.581
  0
VERTEX
  8
met1
  10
227.255
  20
421.02
  0
VERTEX
  8
met1
  10
228.052
  20
424.739
  0
VERTEX
  8
met1
  10
229.19
  20
426.498
  0
VERTEX
  8
met1
  10
230.9
  20
427
  0
VERTEX
  8
met1
  10
232.163
  20
427
  0
VERTEX
  8
met1
  10
233.907
  20
426.385
  0
VERTEX
  8
met1
  10
234.241
  20
425.883
  0
VERTEX
  8
met1
  10
236.27
  20
428.968
  0
SEQEND
  0
POLYLINE
  8
met1
  70
1
  66
1
  0
VERTEX
  8
met1
  10
239.255
  20
421.08
  0
VERTEX
  8
met1
  10
238.244
  20
425.8
  0
VERTEX
  8
met1
  10
238.244
  20
425.802
  0
VERTEX
  8
met1
  10
237.449
  20
426.916
  0
VERTEX
  8
met1
  10
235.245
  20
423.568
  0
VERTEX
  8
met1
  10
235.245
  20
423.565
  0
VERTEX
  8
met1
  10
235.855
  20
420.72
  0
VERTEX
  8
met1
  10
235.855
  20
419.58
  0
VERTEX
  8
met1
  10
235.311
  20
417.036
  0
VERTEX
  8
met1
  10
235.311
  20
416.992
  0
VERTEX
  8
met1
  10
233.769
  20
414.807
  0
VERTEX
  8
met1
  10
232.148
  20
414.2
  0
VERTEX
  8
met1
  10
230.948
  20
414.2
  0
VERTEX
  8
met1
  10
229.434
  20
414.734
  0
VERTEX
  8
met1
  10
227.509
  20
411.808
  0
VERTEX
  8
met1
  10
230.364
  20
410.8
  0
VERTEX
  8
met1
  10
232.763
  20
410.8
  0
VERTEX
  8
met1
  10
235.942
  20
411.993
  0
VERTEX
  8
met1
  10
238.476
  20
415.581
  0
VERTEX
  8
met1
  10
238.476
  20
415.582
  0
VERTEX
  8
met1
  10
239.255
  20
419.221
  0
VERTEX
  8
met1
  10
239.255
  20
421.08
  0
SEQEND
  0
POLYLINE
  8
met1
  70
1
  66
1
  0
VERTEX
  8
met1
  10
159.619
  20
450.942
  0
VERTEX
  8
met1
  10
159.619
  20
448.076
  0
VERTEX
  8
met1
  10
161.399
  20
448.076
  0
VERTEX
  8
met1
  10
161.399
  20
440.879
  0
VERTEX
  8
met1
  10
161.399
  20
438.138
  0
VERTEX
  8
met1
  10
162.139
  20
437.219
  0
VERTEX
  8
met1
  10
162.879
  20
436.3
  0
VERTEX
  8
met1
  10
163.866
  20
436.3
  0
VERTEX
  8
met1
  10
169.117
  20
436.3
  0
VERTEX
  8
met1
  10
169.381
  20
439.727
  0
VERTEX
  8
met1
  10
169.328
  20
439.696
  0
VERTEX
  8
met1
  10
169.24
  20
439.618
  0
VERTEX
  8
met1
  10
169.152
  20
439.54
  0
VERTEX
  8
met1
  10
169.029
  20
439.478
  0
VERTEX
  8
met1
  10
168.835
  20
439.353
  0
VERTEX
  8
met1
  10
168.535
  20
439.259
  0
VERTEX
  8
met1
  10
168.236
  20
439.166
  0
VERTEX
  8
met1
  10
167.848
  20
439.166
  0
VERTEX
  8
met1
  10
166.386
  20
439.166
  0
VERTEX
  8
met1
  10
165.839
  20
439.166
  0
VERTEX
  8
met1
  10
165.698
  20
439.415
  0
VERTEX
  8
met1
  10
165.557
  20
439.664
  0
VERTEX
  8
met1
  10
165.557
  20
440.35
  0
VERTEX
  8
met1
  10
165.557
  20
448.076
  0
VERTEX
  8
met1
  10
168.905
  20
448.076
  0
VERTEX
  8
met1
  10
168.905
  20
450.942
  0
VERTEX
  8
met1
  10
165.557
  20
450.942
  0
VERTEX
  8
met1
  10
165.557
  20
454.182
  0
VERTEX
  8
met1
  10
161.399
  20
453.995
  0
VERTEX
  8
met1
  10
161.399
  20
450.942
  0
VERTEX
  8
met1
  10
159.619
  20
450.942
  0
SEQEND
  0
POLYLINE
  8
met1
  70
1
  66
1
  0
VERTEX
  8
met1
  10
213.51
  20
423.74
  0
VERTEX
  8
met1
  10
215.255
  20
424.613
  0
VERTEX
  8
met1
  10
215.255
  20
410.8
  0
VERTEX
  8
met1
  10
218.855
  20
410.8
  0
VERTEX
  8
met1
  10
218.855
  20
429.545
  0
VERTEX
  8
met1
  10
216.31
  20
430.6
  0
VERTEX
  8
met1
  10
213.44
  20
427.73
  0
VERTEX
  8
met1
  10
211.9
  20
426.96
  0
VERTEX
  8
met1
  10
213.51
  20
423.74
  0
SEQEND
  0
POLYLINE
  8
met1
  70
1
  66
1
  0
VERTEX
  8
met1
  10
180.606
  20
448.854
  0
VERTEX
  8
met1
  10
180.483
  20
449.353
  0
VERTEX
  8
met1
  10
180.421
  20
449.711
  0
VERTEX
  8
met1
  10
180.359
  20
450.069
  0
VERTEX
  8
met1
  10
180.359
  20
450.319
  0
VERTEX
  8
met1
  10
180.359
  20
450.443
  0
VERTEX
  8
met1
  10
180.377
  20
450.599
  0
VERTEX
  8
met1
  10
180.395
  20
450.755
  0
VERTEX
  8
met1
  10
180.412
  20
450.942
  0
VERTEX
  8
met1
  10
175.408
  20
450.942
  0
VERTEX
  8
met1
  10
175.479
  20
450.817
  0
VERTEX
  8
met1
  10
175.54
  20
450.677
  0
VERTEX
  8
met1
  10
175.602
  20
450.537
  0
VERTEX
  8
met1
  10
175.655
  20
450.412
  0
VERTEX
  8
met1
  10
175.76
  20
450.132
  0
VERTEX
  8
met1
  10
175.831
  20
449.867
  0
VERTEX
  8
met1
  10
175.901
  20
449.602
  0
VERTEX
  8
met1
  10
175.954
  20
449.353
  0
VERTEX
  8
met1
  10
179.196
  20
436.3
  0
VERTEX
  8
met1
  10
183.619
  20
436.3
  0
VERTEX
  8
met1
  10
186.333
  20
447.92
  0
VERTEX
  8
met1
  10
186.403
  20
448.231
  0
VERTEX
  8
met1
  10
186.456
  20
448.465
  0
VERTEX
  8
met1
  10
186.509
  20
448.699
  0
VERTEX
  8
met1
  10
186.579
  20
448.917
  0
VERTEX
  8
met1
  10
186.597
  20
449.01
  0
VERTEX
  8
met1
  10
186.624
  20
449.104
  0
VERTEX
  8
met1
  10
186.65
  20
449.197
  0
VERTEX
  8
met1
  10
186.685
  20
449.291
  0
VERTEX
  8
met1
  10
186.773
  20
449.633
  0
VERTEX
  8
met1
  10
186.905
  20
450.007
  0
VERTEX
  8
met1
  10
187.038
  20
450.381
  0
VERTEX
  8
met1
  10
187.267
  20
450.942
  0
VERTEX
  8
met1
  10
184.817
  20
450.942
  0
VERTEX
  8
met1
  10
184.87
  20
450.724
  0
VERTEX
  8
met1
  10
184.897
  20
450.506
  0
VERTEX
  8
met1
  10
184.923
  20
450.288
  0
VERTEX
  8
met1
  10
184.923
  20
450.069
  0
VERTEX
  8
met1
  10
184.923
  20
449.851
  0
VERTEX
  8
met1
  10
184.897
  20
449.618
  0
VERTEX
  8
met1
  10
184.87
  20
449.384
  0
VERTEX
  8
met1
  10
184.817
  20
449.166
  0
VERTEX
  8
met1
  10
182.703
  20
440.101
  0
VERTEX
  8
met1
  10
180.606
  20
448.854
  0
SEQEND
  0
POLYLINE
  8
met1
  70
1
  66
1
  0
VERTEX
  8
met1
  10
153.98
  20
447.39
  0
VERTEX
  8
met1
  10
154.2
  20
447.733
  0
VERTEX
  8
met1
  10
154.42
  20
448.076
  0
VERTEX
  8
met1
  10
154.914
  20
448.076
  0
VERTEX
  8
met1
  10
157.292
  20
448.076
  0
VERTEX
  8
met1
  10
158.068
  20
448.076
  0
VERTEX
  8
met1
  10
158.561
  20
447.889
  0
VERTEX
  8
met1
  10
159.054
  20
447.702
  0
VERTEX
  8
met1
  10
159.284
  20
447.297
  0
VERTEX
  8
met1
  10
158.913
  20
450.942
  0
VERTEX
  8
met1
  10
152.412
  20
450.942
  0
VERTEX
  8
met1
  10
150.984
  20
450.942
  0
VERTEX
  8
met1
  10
150.394
  20
449.68
  0
VERTEX
  8
met1
  10
149.804
  20
448.418
  0
VERTEX
  8
met1
  10
149.804
  20
446.393
  0
VERTEX
  8
met1
  10
149.804
  20
440.848
  0
VERTEX
  8
met1
  10
149.804
  20
438.855
  0
VERTEX
  8
met1
  10
150.394
  20
437.577
  0
VERTEX
  8
met1
  10
150.984
  20
436.3
  0
VERTEX
  8
met1
  10
152.412
  20
436.3
  0
VERTEX
  8
met1
  10
158.878
  20
436.3
  0
VERTEX
  8
met1
  10
159.178
  20
439.883
  0
VERTEX
  8
met1
  10
159.143
  20
439.851
  0
VERTEX
  8
met1
  10
159.107
  20
439.82
  0
VERTEX
  8
met1
  10
159.072
  20
439.789
  0
VERTEX
  8
met1
  10
159.037
  20
439.758
  0
VERTEX
  8
met1
  10
158.72
  20
439.509
  0
VERTEX
  8
met1
  10
158.306
  20
439.337
  0
VERTEX
  8
met1
  10
157.891
  20
439.166
  0
VERTEX
  8
met1
  10
156.94
  20
439.166
  0
VERTEX
  8
met1
  10
154.914
  20
439.166
  0
VERTEX
  8
met1
  10
154.42
  20
439.166
  0
VERTEX
  8
met1
  10
154.2
  20
439.524
  0
VERTEX
  8
met1
  10
153.98
  20
439.883
  0
VERTEX
  8
met1
  10
153.962
  20
440.661
  0
VERTEX
  8
met1
  10
153.962
  20
446.58
  0
VERTEX
  8
met1
  10
153.98
  20
447.39
  0
SEQEND
  0
POLYLINE
  8
met1
  70
1
  66
1
  0
VERTEX
  8
met1
  10
204.747
  20
450.879
  0
VERTEX
  8
met1
  10
204.764
  20
450.833
  0
VERTEX
  8
met1
  10
204.782
  20
450.786
  0
VERTEX
  8
met1
  10
204.8
  20
450.724
  0
VERTEX
  8
met1
  10
204.958
  20
450.225
  0
VERTEX
  8
met1
  10
205.073
  20
449.587
  0
VERTEX
  8
met1
  10
205.187
  20
448.948
  0
VERTEX
  8
met1
  10
205.187
  20
447.577
  0
VERTEX
  8
met1
  10
205.187
  20
439.664
  0
VERTEX
  8
met1
  10
205.187
  20
438.294
  0
VERTEX
  8
met1
  10
205.073
  20
437.655
  0
VERTEX
  8
met1
  10
204.958
  20
437.017
  0
VERTEX
  8
met1
  10
204.8
  20
436.518
  0
VERTEX
  8
met1
  10
204.782
  20
436.456
  0
VERTEX
  8
met1
  10
204.764
  20
436.409
  0
VERTEX
  8
met1
  10
204.747
  20
436.362
  0
VERTEX
  8
met1
  10
204.729
  20
436.3
  0
VERTEX
  8
met1
  10
209.804
  20
436.3
  0
VERTEX
  8
met1
  10
209.786
  20
436.362
  0
VERTEX
  8
met1
  10
209.769
  20
436.409
  0
VERTEX
  8
met1
  10
209.751
  20
436.456
  0
VERTEX
  8
met1
  10
209.733
  20
436.518
  0
VERTEX
  8
met1
  10
209.575
  20
437.017
  0
VERTEX
  8
met1
  10
209.46
  20
437.655
  0
VERTEX
  8
met1
  10
209.346
  20
438.294
  0
VERTEX
  8
met1
  10
209.346
  20
439.664
  0
VERTEX
  8
met1
  10
209.346
  20
444.369
  0
VERTEX
  8
met1
  10
209.346
  20
445.864
  0
VERTEX
  8
met1
  10
209.707
  20
446.362
  0
VERTEX
  8
met1
  10
210.068
  20
446.861
  0
VERTEX
  8
met1
  10
211.302
  20
446.861
  0
VERTEX
  8
met1
  10
211.989
  20
446.861
  0
VERTEX
  8
met1
  10
212.315
  20
446.783
  0
VERTEX
  8
met1
  10
212.641
  20
446.705
  0
VERTEX
  8
met1
  10
212.887
  20
446.487
  0
VERTEX
  8
met1
  10
212.975
  20
446.425
  0
VERTEX
  8
met1
  10
213.064
  20
446.331
  0
VERTEX
  8
met1
  10
213.152
  20
446.238
  0
VERTEX
  8
met1
  10
213.257
  20
446.144
  0
VERTEX
  8
met1
  10
213.257
  20
450.942
  0
VERTEX
  8
met1
  10
211.196
  20
450.942
  0
VERTEX
  8
met1
  10
210.227
  20
450.942
  0
VERTEX
  8
met1
  10
209.795
  20
450.412
  0
VERTEX
  8
met1
  10
209.363
  20
449.883
  0
VERTEX
  8
met1
  10
209.064
  20
448.574
  0
VERTEX
  8
met1
  10
209.028
  20
448.574
  0
VERTEX
  8
met1
  10
208.887
  20
450.942
  0
VERTEX
  8
met1
  10
204.729
  20
450.942
  0
VERTEX
  8
met1
  10
204.747
  20
450.879
  0
SEQEND
  0
POLYLINE
  8
met1
  70
1
  66
1
  0
VERTEX
  8
met1
  10
170.58
  20
438.294
  0
VERTEX
  8
met1
  10
170.465
  20
437.655
  0
VERTEX
  8
met1
  10
170.35
  20
437.017
  0
VERTEX
  8
met1
  10
170.192
  20
436.518
  0
VERTEX
  8
met1
  10
170.174
  20
436.456
  0
VERTEX
  8
met1
  10
170.157
  20
436.409
  0
VERTEX
  8
met1
  10
170.139
  20
436.362
  0
VERTEX
  8
met1
  10
170.121
  20
436.3
  0
VERTEX
  8
met1
  10
175.196
  20
436.3
  0
VERTEX
  8
met1
  10
175.179
  20
436.362
  0
VERTEX
  8
met1
  10
175.161
  20
436.409
  0
VERTEX
  8
met1
  10
175.143
  20
436.456
  0
VERTEX
  8
met1
  10
175.126
  20
436.518
  0
VERTEX
  8
met1
  10
174.967
  20
437.017
  0
VERTEX
  8
met1
  10
174.853
  20
437.655
  0
VERTEX
  8
met1
  10
174.738
  20
438.294
  0
VERTEX
  8
met1
  10
174.738
  20
439.664
  0
VERTEX
  8
met1
  10
174.738
  20
450.942
  0
VERTEX
  8
met1
  10
170.121
  20
450.942
  0
VERTEX
  8
met1
  10
170.139
  20
450.879
  0
VERTEX
  8
met1
  10
170.157
  20
450.833
  0
VERTEX
  8
met1
  10
170.174
  20
450.786
  0
VERTEX
  8
met1
  10
170.192
  20
450.724
  0
VERTEX
  8
met1
  10
170.35
  20
450.225
  0
VERTEX
  8
met1
  10
170.465
  20
449.587
  0
VERTEX
  8
met1
  10
170.58
  20
448.948
  0
VERTEX
  8
met1
  10
170.58
  20
447.577
  0
VERTEX
  8
met1
  10
170.58
  20
439.664
  0
VERTEX
  8
met1
  10
170.58
  20
438.294
  0
SEQEND
  0
POLYLINE
  8
met1
  70
1
  66
1
  0
VERTEX
  8
met1
  10
199.055
  20
438.294
  0
VERTEX
  8
met1
  10
198.94
  20
437.655
  0
VERTEX
  8
met1
  10
198.826
  20
437.017
  0
VERTEX
  8
met1
  10
198.667
  20
436.518
  0
VERTEX
  8
met1
  10
198.649
  20
436.456
  0
VERTEX
  8
met1
  10
198.632
  20
436.409
  0
VERTEX
  8
met1
  10
198.614
  20
436.362
  0
VERTEX
  8
met1
  10
198.597
  20
436.3
  0
VERTEX
  8
met1
  10
203.671
  20
436.3
  0
VERTEX
  8
met1
  10
203.654
  20
436.362
  0
VERTEX
  8
met1
  10
203.636
  20
436.409
  0
VERTEX
  8
met1
  10
203.618
  20
436.456
  0
VERTEX
  8
met1
  10
203.601
  20
436.518
  0
VERTEX
  8
met1
  10
203.442
  20
437.017
  0
VERTEX
  8
met1
  10
203.328
  20
437.655
  0
VERTEX
  8
met1
  10
203.213
  20
438.294
  0
VERTEX
  8
met1
  10
203.213
  20
439.664
  0
VERTEX
  8
met1
  10
203.213
  20
450.942
  0
VERTEX
  8
met1
  10
198.597
  20
450.942
  0
VERTEX
  8
met1
  10
198.614
  20
450.879
  0
VERTEX
  8
met1
  10
198.632
  20
450.833
  0
VERTEX
  8
met1
  10
198.649
  20
450.786
  0
VERTEX
  8
met1
  10
198.667
  20
450.724
  0
VERTEX
  8
met1
  10
198.826
  20
450.225
  0
VERTEX
  8
met1
  10
198.94
  20
449.587
  0
VERTEX
  8
met1
  10
199.055
  20
448.948
  0
VERTEX
  8
met1
  10
199.055
  20
447.577
  0
VERTEX
  8
met1
  10
199.055
  20
439.664
  0
VERTEX
  8
met1
  10
199.055
  20
438.294
  0
SEQEND
  0
POLYLINE
  8
met1
  70
1
  66
1
  0
VERTEX
  8
met1
  10
141.9
  20
443.281
  0
VERTEX
  8
met1
  10
141.928
  20
443.309
  0
VERTEX
  8
met1
  10
142.403
  20
443.34
  0
VERTEX
  8
met1
  10
144.253
  20
443.34
  0
VERTEX
  8
met1
  10
144.253
  20
439.851
  0
VERTEX
  8
met1
  10
144.113
  20
439.509
  0
VERTEX
  8
met1
  10
143.986
  20
439.2
  0
VERTEX
  8
met1
  10
148.447
  20
439.2
  0
VERTEX
  8
met1
  10
148.447
  20
448.45
  0
VERTEX
  8
met1
  10
147.161
  20
450.942
  0
VERTEX
  8
met1
  10
141.9
  20
450.942
  0
VERTEX
  8
met1
  10
141.9
  20
448.076
  0
VERTEX
  8
met1
  10
143.989
  20
448.076
  0
VERTEX
  8
met1
  10
144.253
  20
447.64
  0
VERTEX
  8
met1
  10
144.253
  20
446.643
  0
VERTEX
  8
met1
  10
143.989
  20
446.207
  0
VERTEX
  8
met1
  10
141.9
  20
446.207
  0
VERTEX
  8
met1
  10
141.9
  20
443.281
  0
SEQEND
  0
POLYLINE
  8
met1
  70
1
  66
1
  0
VERTEX
  8
met1
  10
137.364
  20
438.45
  0
VERTEX
  8
met1
  10
138.368
  20
436.3
  0
VERTEX
  8
met1
  10
141.5
  20
436.3
  0
VERTEX
  8
met1
  10
141.5
  20
446.207
  0
VERTEX
  8
met1
  10
138.368
  20
446.207
  0
VERTEX
  8
met1
  10
137.866
  20
445.147
  0
VERTEX
  8
met1
  10
137.364
  20
444.088
  0
VERTEX
  8
met1
  10
137.364
  20
438.45
  0
SEQEND
  0
POLYLINE
  8
met1
  70
1
  66
1
  0
VERTEX
  8
met1
  10
141.9
  20
436.3
  0
VERTEX
  8
met1
  10
143.566
  20
436.3
  0
VERTEX
  8
met1
  10
143.91
  20
436.627
  0
VERTEX
  8
met1
  10
144.253
  20
436.954
  0
VERTEX
  8
met1
  10
144.412
  20
437.92
  0
VERTEX
  8
met1
  10
144.447
  20
437.92
  0
VERTEX
  8
met1
  10
144.659
  20
436.3
  0
VERTEX
  8
met1
  10
148.852
  20
436.3
  0
VERTEX
  8
met1
  10
148.676
  20
436.736
  0
VERTEX
  8
met1
  10
148.562
  20
437.328
  0
VERTEX
  8
met1
  10
148.447
  20
437.92
  0
VERTEX
  8
met1
  10
148.447
  20
439.2
  0
VERTEX
  8
met1
  10
143.986
  20
439.2
  0
VERTEX
  8
met1
  10
143.972
  20
439.166
  0
VERTEX
  8
met1
  10
142.403
  20
439.166
  0
VERTEX
  8
met1
  10
141.928
  20
439.197
  0
VERTEX
  8
met1
  10
141.925
  20
439.2
  0
VERTEX
  8
met1
  10
141.9
  20
439.2
  0
VERTEX
  8
met1
  10
141.9
  20
436.3
  0
SEQEND
  0
POLYLINE
  8
met1
  70
1
  66
1
  0
VERTEX
  8
met1
  10
170.615
  20
452.437
  0
VERTEX
  8
met1
  10
174.703
  20
452.437
  0
VERTEX
  8
met1
  10
174.703
  20
456.3
  0
VERTEX
  8
met1
  10
170.615
  20
456.3
  0
VERTEX
  8
met1
  10
170.615
  20
452.437
  0
SEQEND
  0
POLYLINE
  8
met1
  70
1
  66
1
  0
VERTEX
  8
met1
  10
199.09
  20
452.437
  0
VERTEX
  8
met1
  10
203.178
  20
452.437
  0
VERTEX
  8
met1
  10
203.178
  20
456.3
  0
VERTEX
  8
met1
  10
199.09
  20
456.3
  0
VERTEX
  8
met1
  10
199.09
  20
452.437
  0
SEQEND
  0
POLYLINE
  8
met1
  70
1
  66
1
  0
VERTEX
  8
met1
  10
137.752
  20
447.453
  0
VERTEX
  8
met1
  10
137.84
  20
447.515
  0
VERTEX
  8
met1
  10
137.91
  20
447.577
  0
VERTEX
  8
met1
  10
137.981
  20
447.64
  0
VERTEX
  8
met1
  10
138.051
  20
447.702
  0
VERTEX
  8
met1
  10
138.333
  20
447.889
  0
VERTEX
  8
met1
  10
138.641
  20
447.982
  0
VERTEX
  8
met1
  10
138.95
  20
448.076
  0
VERTEX
  8
met1
  10
141.9
  20
448.076
  0
VERTEX
  8
met1
  10
141.9
  20
450.942
  0
VERTEX
  8
met1
  10
138.051
  20
450.942
  0
VERTEX
  8
met1
  10
137.752
  20
447.453
  0
SEQEND
  0
POLYLINE
  8
backvia
  70
1
  66
1
  0
VERTEX
  8
backvia
  10
380.5
  20
366.5
  0
VERTEX
  8
backvia
  10
380.5
  20
335.5
  0
VERTEX
  8
backvia
  10
355.5
  20
335.5
  0
VERTEX
  8
backvia
  10
355.5
  20
366.5
  0
VERTEX
  8
backvia
  10
380.5
  20
366.5
  0
SEQEND
  0
POLYLINE
  8
backvia
  70
1
  66
1
  0
VERTEX
  8
backvia
  10
380.5
  20
163.5
  0
VERTEX
  8
backvia
  10
380.5
  20
132.5
  0
VERTEX
  8
backvia
  10
355.5
  20
132.5
  0
VERTEX
  8
backvia
  10
355.5
  20
163.5
  0
VERTEX
  8
backvia
  10
380.5
  20
163.5
  0
SEQEND
  0
POLYLINE
  8
backvia
  70
1
  66
1
  0
VERTEX
  8
backvia
  10
119.5
  20
132.5
  0
VERTEX
  8
backvia
  10
119.5
  20
163.5
  0
VERTEX
  8
backvia
  10
144.5
  20
163.5
  0
VERTEX
  8
backvia
  10
144.5
  20
132.5
  0
VERTEX
  8
backvia
  10
119.5
  20
132.5
  0
SEQEND
  0
POLYLINE
  8
backvia
  70
1
  66
1
  0
VERTEX
  8
backvia
  10
119.5
  20
335.5
  0
VERTEX
  8
backvia
  10
119.5
  20
366.5
  0
VERTEX
  8
backvia
  10
144.5
  20
366.5
  0
VERTEX
  8
backvia
  10
144.5
  20
335.5
  0
VERTEX
  8
backvia
  10
119.5
  20
335.5
  0
SEQEND
  0
POLYLINE
  8
backvia
  70
1
  66
1
  0
VERTEX
  8
backvia
  10
234.5
  20
171.8
  0
VERTEX
  8
backvia
  10
265.5
  20
171.8
  0
VERTEX
  8
backvia
  10
265.5
  20
146.8
  0
VERTEX
  8
backvia
  10
234.5
  20
146.8
  0
VERTEX
  8
backvia
  10
234.5
  20
171.8
  0
SEQEND
  0
POLYLINE
  8
backvia
  70
1
  66
1
  0
VERTEX
  8
backvia
  10
234.5
  20
352.2
  0
VERTEX
  8
backvia
  10
265.5
  20
352.2
  0
VERTEX
  8
backvia
  10
265.5
  20
327.2
  0
VERTEX
  8
backvia
  10
234.5
  20
327.2
  0
VERTEX
  8
backvia
  10
234.5
  20
352.2
  0
SEQEND
  0
POLYLINE
  8
backvia
  70
1
  66
1
  0
VERTEX
  8
backvia
  10
280.816
  20
239.822
  0
VERTEX
  8
backvia
  10
282.231
  20
245.782
  0
VERTEX
  8
backvia
  10
282.723
  20
245.782
  0
VERTEX
  8
backvia
  10
282.723
  20
247.903
  0
VERTEX
  8
backvia
  10
284.138
  20
253.674
  0
VERTEX
  8
backvia
  10
284.586
  20
255.54
  0
VERTEX
  8
backvia
  10
284.832
  20
257.433
  0
VERTEX
  8
backvia
  10
285.131
  20
255.836
  0
VERTEX
  8
backvia
  10
285.746
  20
253.352
  0
VERTEX
  8
backvia
  10
287.091
  20
247.903
  0
VERTEX
  8
backvia
  10
282.723
  20
247.903
  0
VERTEX
  8
backvia
  10
282.723
  20
245.782
  0
VERTEX
  8
backvia
  10
287.618
  20
245.782
  0
VERTEX
  8
backvia
  10
289.121
  20
239.822
  0
VERTEX
  8
backvia
  10
291.063
  20
239.822
  0
VERTEX
  8
backvia
  10
285.79
  20
259.5
  0
VERTEX
  8
backvia
  10
283.953
  20
259.5
  0
VERTEX
  8
backvia
  10
279.006
  20
239.822
  0
VERTEX
  8
backvia
  10
280.816
  20
239.822
  0
SEQEND
  0
POLYLINE
  8
backvia
  70
1
  66
1
  0
VERTEX
  8
backvia
  10
230.379
  20
239.822
  0
VERTEX
  8
backvia
  10
230.379
  20
257.178
  0
VERTEX
  8
backvia
  10
234.641
  20
257.178
  0
VERTEX
  8
backvia
  10
234.641
  20
259.5
  0
VERTEX
  8
backvia
  10
224.43
  20
259.5
  0
VERTEX
  8
backvia
  10
224.43
  20
257.178
  0
VERTEX
  8
backvia
  10
228.674
  20
257.178
  0
VERTEX
  8
backvia
  10
228.674
  20
239.822
  0
VERTEX
  8
backvia
  10
230.379
  20
239.822
  0
SEQEND
  0
POLYLINE
  8
backvia
  70
1
  66
1
  0
VERTEX
  8
backvia
  10
199.006
  20
239.822
  0
VERTEX
  8
backvia
  10
199.006
  20
255.285
  0
VERTEX
  8
backvia
  10
205.772
  20
239.822
  0
VERTEX
  8
backvia
  10
207.521
  20
239.822
  0
VERTEX
  8
backvia
  10
207.521
  20
259.5
  0
VERTEX
  8
backvia
  10
205.887
  20
259.5
  0
VERTEX
  8
backvia
  10
205.887
  20
244.05
  0
VERTEX
  8
backvia
  10
199.12
  20
259.5
  0
VERTEX
  8
backvia
  10
197.371
  20
259.5
  0
VERTEX
  8
backvia
  10
197.371
  20
239.822
  0
VERTEX
  8
backvia
  10
199.006
  20
239.822
  0
SEQEND
  0
POLYLINE
  8
backvia
  70
1
  66
1
  0
VERTEX
  8
backvia
  10
266.79
  20
239.822
  0
VERTEX
  8
backvia
  10
266.79
  20
247.621
  0
VERTEX
  8
backvia
  10
266.79
  20
249.299
  0
VERTEX
  8
backvia
  10
267.054
  20
250.252
  0
VERTEX
  8
backvia
  10
267.317
  20
251.205
  0
VERTEX
  8
backvia
  10
267.937
  20
251.762
  0
VERTEX
  8
backvia
  10
268.556
  20
252.319
  0
VERTEX
  8
backvia
  10
269.259
  20
252.319
  0
VERTEX
  8
backvia
  10
270.2
  20
252.319
  0
VERTEX
  8
backvia
  10
270.714
  20
251.493
  0
VERTEX
  8
backvia
  10
271.228
  20
250.668
  0
VERTEX
  8
backvia
  10
271.228
  20
248.856
  0
VERTEX
  8
backvia
  10
271.228
  20
239.822
  0
VERTEX
  8
backvia
  10
272.81
  20
239.822
  0
VERTEX
  8
backvia
  10
272.81
  20
248.856
  0
VERTEX
  8
backvia
  10
272.81
  20
250.95
  0
VERTEX
  8
backvia
  10
272.48
  20
252.05
  0
VERTEX
  8
backvia
  10
272.151
  20
253.151
  0
VERTEX
  8
backvia
  10
271.386
  20
253.775
  0
VERTEX
  8
backvia
  10
270.622
  20
254.399
  0
VERTEX
  8
backvia
  10
269.585
  20
254.399
  0
VERTEX
  8
backvia
  10
267.897
  20
254.399
  0
VERTEX
  8
backvia
  10
266.79
  20
252.44
  0
VERTEX
  8
backvia
  10
266.79
  20
259.5
  0
VERTEX
  8
backvia
  10
265.208
  20
259.5
  0
VERTEX
  8
backvia
  10
265.208
  20
239.822
  0
VERTEX
  8
backvia
  10
266.79
  20
239.822
  0
SEQEND
  0
POLYLINE
  8
backvia
  70
1
  66
1
  0
VERTEX
  8
backvia
  10
209.595
  20
243.339
  0
VERTEX
  8
backvia
  10
210.803
  20
241.419
  0
VERTEX
  8
backvia
  10
211.221
  20
240.756
  0
VERTEX
  8
backvia
  10
211.221
  20
244.211
  0
VERTEX
  8
backvia
  10
211.221
  20
246.95
  0
VERTEX
  8
backvia
  10
211.221
  20
249.688
  0
VERTEX
  8
backvia
  10
212.003
  20
251.044
  0
VERTEX
  8
backvia
  10
212.785
  20
252.399
  0
VERTEX
  8
backvia
  10
213.972
  20
252.399
  0
VERTEX
  8
backvia
  10
215.14
  20
252.399
  0
VERTEX
  8
backvia
  10
215.927
  20
251.037
  0
VERTEX
  8
backvia
  10
216.714
  20
249.675
  0
VERTEX
  8
backvia
  10
216.714
  20
247.03
  0
VERTEX
  8
backvia
  10
216.714
  20
244.225
  0
VERTEX
  8
backvia
  10
215.931
  20
242.856
  0
VERTEX
  8
backvia
  10
215.149
  20
241.487
  0
VERTEX
  8
backvia
  10
213.972
  20
241.487
  0
VERTEX
  8
backvia
  10
212.785
  20
241.487
  0
VERTEX
  8
backvia
  10
212.003
  20
242.849
  0
VERTEX
  8
backvia
  10
211.221
  20
244.211
  0
VERTEX
  8
backvia
  10
211.221
  20
240.756
  0
VERTEX
  8
backvia
  10
212.012
  20
239.5
  0
VERTEX
  8
backvia
  10
213.972
  20
239.5
  0
VERTEX
  8
backvia
  10
215.193
  20
239.5
  0
VERTEX
  8
backvia
  10
216.226
  20
240.372
  0
VERTEX
  8
backvia
  10
217.258
  20
241.245
  0
VERTEX
  8
backvia
  10
217.799
  20
242.822
  0
VERTEX
  8
backvia
  10
218.339
  20
244.399
  0
VERTEX
  8
backvia
  10
218.339
  20
247.151
  0
VERTEX
  8
backvia
  10
218.339
  20
250.547
  0
VERTEX
  8
backvia
  10
217.118
  20
252.473
  0
VERTEX
  8
backvia
  10
215.896
  20
254.399
  0
VERTEX
  8
backvia
  10
213.972
  20
254.399
  0
VERTEX
  8
backvia
  10
212.24
  20
254.399
  0
VERTEX
  8
backvia
  10
211.036
  20
252.815
  0
VERTEX
  8
backvia
  10
209.595
  20
250.909
  0
VERTEX
  8
backvia
  10
209.595
  20
246.95
  0
VERTEX
  8
backvia
  10
209.595
  20
243.339
  0
SEQEND
  0
POLYLINE
  8
backvia
  70
1
  66
1
  0
VERTEX
  8
backvia
  10
235.6
  20
243.339
  0
VERTEX
  8
backvia
  10
236.809
  20
241.419
  0
VERTEX
  8
backvia
  10
237.226
  20
240.756
  0
VERTEX
  8
backvia
  10
237.226
  20
244.211
  0
VERTEX
  8
backvia
  10
237.226
  20
246.95
  0
VERTEX
  8
backvia
  10
237.226
  20
249.688
  0
VERTEX
  8
backvia
  10
238.008
  20
251.044
  0
VERTEX
  8
backvia
  10
238.79
  20
252.399
  0
VERTEX
  8
backvia
  10
239.977
  20
252.399
  0
VERTEX
  8
backvia
  10
241.145
  20
252.399
  0
VERTEX
  8
backvia
  10
241.932
  20
251.037
  0
VERTEX
  8
backvia
  10
242.719
  20
249.675
  0
VERTEX
  8
backvia
  10
242.719
  20
247.03
  0
VERTEX
  8
backvia
  10
242.719
  20
244.225
  0
VERTEX
  8
backvia
  10
241.936
  20
242.856
  0
VERTEX
  8
backvia
  10
241.154
  20
241.487
  0
VERTEX
  8
backvia
  10
239.977
  20
241.487
  0
VERTEX
  8
backvia
  10
238.79
  20
241.487
  0
VERTEX
  8
backvia
  10
238.008
  20
242.849
  0
VERTEX
  8
backvia
  10
237.226
  20
244.211
  0
VERTEX
  8
backvia
  10
237.226
  20
240.756
  0
VERTEX
  8
backvia
  10
238.017
  20
239.5
  0
VERTEX
  8
backvia
  10
239.977
  20
239.5
  0
VERTEX
  8
backvia
  10
241.198
  20
239.5
  0
VERTEX
  8
backvia
  10
242.231
  20
240.372
  0
VERTEX
  8
backvia
  10
243.263
  20
241.245
  0
VERTEX
  8
backvia
  10
243.804
  20
242.822
  0
VERTEX
  8
backvia
  10
244.344
  20
244.399
  0
VERTEX
  8
backvia
  10
244.344
  20
247.151
  0
VERTEX
  8
backvia
  10
244.344
  20
250.547
  0
VERTEX
  8
backvia
  10
243.123
  20
252.473
  0
VERTEX
  8
backvia
  10
241.901
  20
254.399
  0
VERTEX
  8
backvia
  10
239.977
  20
254.399
  0
VERTEX
  8
backvia
  10
238.245
  20
254.399
  0
VERTEX
  8
backvia
  10
237.041
  20
252.815
  0
VERTEX
  8
backvia
  10
235.6
  20
250.909
  0
VERTEX
  8
backvia
  10
235.6
  20
246.95
  0
VERTEX
  8
backvia
  10
235.6
  20
243.339
  0
SEQEND
  0
POLYLINE
  8
backvia
  70
1
  66
1
  0
VERTEX
  8
backvia
  10
304.245
  20
242.883
  0
VERTEX
  8
backvia
  10
303.63
  20
242.185
  0
VERTEX
  8
backvia
  10
303.015
  20
241.487
  0
VERTEX
  8
backvia
  10
302.145
  20
241.487
  0
VERTEX
  8
backvia
  10
300.976
  20
241.487
  0
VERTEX
  8
backvia
  10
300.194
  20
242.735
  0
VERTEX
  8
backvia
  10
299.412
  20
243.983
  0
VERTEX
  8
backvia
  10
299.324
  20
246.332
  0
VERTEX
  8
backvia
  10
299.412
  20
246.332
  0
VERTEX
  8
backvia
  10
299.412
  20
248.319
  0
VERTEX
  8
backvia
  10
299.491
  20
250.185
  0
VERTEX
  8
backvia
  10
300.233
  20
251.299
  0
VERTEX
  8
backvia
  10
300.976
  20
252.413
  0
VERTEX
  8
backvia
  10
302.066
  20
252.413
  0
VERTEX
  8
backvia
  10
303.27
  20
252.413
  0
VERTEX
  8
backvia
  10
304.026
  20
251.017
  0
VERTEX
  8
backvia
  10
304.518
  20
250.117
  0
VERTEX
  8
backvia
  10
304.623
  20
248.319
  0
VERTEX
  8
backvia
  10
299.412
  20
248.319
  0
VERTEX
  8
backvia
  10
299.412
  20
246.332
  0
VERTEX
  8
backvia
  10
306.284
  20
246.332
  0
VERTEX
  8
backvia
  10
306.293
  20
246.762
  0
VERTEX
  8
backvia
  10
306.293
  20
246.976
  0
VERTEX
  8
backvia
  10
306.293
  20
250.507
  0
VERTEX
  8
backvia
  10
305.107
  20
252.453
  0
VERTEX
  8
backvia
  10
303.92
  20
254.399
  0
VERTEX
  8
backvia
  10
302.048
  20
254.399
  0
VERTEX
  8
backvia
  10
300.115
  20
254.399
  0
VERTEX
  8
backvia
  10
298.902
  20
252.413
  0
VERTEX
  8
backvia
  10
297.689
  20
250.426
  0
VERTEX
  8
backvia
  10
297.689
  20
246.829
  0
VERTEX
  8
backvia
  10
297.689
  20
243.352
  0
VERTEX
  8
backvia
  10
298.889
  20
241.426
  0
VERTEX
  8
backvia
  10
300.088
  20
239.5
  0
VERTEX
  8
backvia
  10
302.136
  20
239.5
  0
VERTEX
  8
backvia
  10
303.762
  20
239.5
  0
VERTEX
  8
backvia
  10
304.808
  20
240.708
  0
VERTEX
  8
backvia
  10
305.853
  20
241.916
  0
VERTEX
  8
backvia
  10
306.24
  20
244.104
  0
VERTEX
  8
backvia
  10
304.606
  20
244.413
  0
VERTEX
  8
backvia
  10
304.245
  20
242.883
  0
SEQEND
  0
POLYLINE
  8
backvia
  70
1
  66
1
  0
VERTEX
  8
backvia
  10
314.387
  20
240.574
  0
VERTEX
  8
backvia
  10
314.633
  20
239.822
  0
VERTEX
  8
backvia
  10
316.285
  20
239.822
  0
VERTEX
  8
backvia
  10
315.986
  20
240.641
  0
VERTEX
  8
backvia
  10
315.885
  20
241.534
  0
VERTEX
  8
backvia
  10
315.784
  20
242.426
  0
VERTEX
  8
backvia
  10
315.784
  20
245.795
  0
VERTEX
  8
backvia
  10
315.784
  20
249.017
  0
VERTEX
  8
backvia
  10
315.784
  20
250.628
  0
VERTEX
  8
backvia
  10
315.705
  20
251.245
  0
VERTEX
  8
backvia
  10
315.564
  20
252.238
  0
VERTEX
  8
backvia
  10
315.213
  20
252.889
  0
VERTEX
  8
backvia
  10
314.861
  20
253.54
  0
VERTEX
  8
backvia
  10
314.114
  20
253.97
  0
VERTEX
  8
backvia
  10
313.367
  20
254.399
  0
VERTEX
  8
backvia
  10
312.172
  20
254.399
  0
VERTEX
  8
backvia
  10
310.968
  20
254.399
  0
VERTEX
  8
backvia
  10
310.054
  20
253.896
  0
VERTEX
  8
backvia
  10
309.14
  20
253.393
  0
VERTEX
  8
backvia
  10
308.657
  20
252.46
  0
VERTEX
  8
backvia
  10
308.173
  20
251.527
  0
VERTEX
  8
backvia
  10
307.962
  20
250.01
  0
VERTEX
  8
backvia
  10
309.509
  20
249.688
  0
VERTEX
  8
backvia
  10
309.764
  20
251.205
  0
VERTEX
  8
backvia
  10
310.296
  20
251.802
  0
VERTEX
  8
backvia
  10
310.827
  20
252.399
  0
VERTEX
  8
backvia
  10
311.943
  20
252.399
  0
VERTEX
  8
backvia
  10
313.139
  20
252.399
  0
VERTEX
  8
backvia
  10
313.745
  20
251.581
  0
VERTEX
  8
backvia
  10
314.193
  20
250.976
  0
VERTEX
  8
backvia
  10
314.193
  20
249.5
  0
VERTEX
  8
backvia
  10
314.193
  20
249.366
  0
VERTEX
  8
backvia
  10
314.184
  20
248.869
  0
VERTEX
  8
backvia
  10
313.279
  20
248.386
  0
VERTEX
  8
backvia
  10
311.363
  20
248.037
  0
VERTEX
  8
backvia
  10
310.423
  20
247.862
  0
VERTEX
  8
backvia
  10
309.957
  20
247.674
  0
VERTEX
  8
backvia
  10
309.325
  20
247.406
  0
VERTEX
  8
backvia
  10
308.819
  20
246.883
  0
VERTEX
  8
backvia
  10
308.314
  20
246.359
  0
VERTEX
  8
backvia
  10
308.002
  20
245.493
  0
VERTEX
  8
backvia
  10
307.69
  20
244.627
  0
VERTEX
  8
backvia
  10
307.69
  20
243.581
  0
VERTEX
  8
backvia
  10
307.69
  20
241.795
  0
VERTEX
  8
backvia
  10
308.516
  20
240.648
  0
VERTEX
  8
backvia
  10
309.342
  20
239.5
  0
VERTEX
  8
backvia
  10
309.377
  20
239.5
  0
VERTEX
  8
backvia
  10
309.377
  20
242.681
  0
VERTEX
  8
backvia
  10
309.377
  20
243.648
  0
VERTEX
  8
backvia
  10
309.377
  20
244.279
  0
VERTEX
  8
backvia
  10
309.597
  20
244.795
  0
VERTEX
  8
backvia
  10
309.817
  20
245.312
  0
VERTEX
  8
backvia
  10
310.221
  20
245.581
  0
VERTEX
  8
backvia
  10
310.625
  20
245.849
  0
VERTEX
  8
backvia
  10
311.601
  20
246.064
  0
VERTEX
  8
backvia
  10
313.323
  20
246.44
  0
VERTEX
  8
backvia
  10
314.184
  20
246.976
  0
VERTEX
  8
backvia
  10
314.184
  20
246.091
  0
VERTEX
  8
backvia
  10
314.184
  20
244.493
  0
VERTEX
  8
backvia
  10
313.93
  20
243.674
  0
VERTEX
  8
backvia
  10
313.596
  20
242.614
  0
VERTEX
  8
backvia
  10
312.884
  20
242.003
  0
VERTEX
  8
backvia
  10
312.172
  20
241.393
  0
VERTEX
  8
backvia
  10
311.258
  20
241.393
  0
VERTEX
  8
backvia
  10
310.335
  20
241.393
  0
VERTEX
  8
backvia
  10
309.856
  20
242.037
  0
VERTEX
  8
backvia
  10
309.377
  20
242.681
  0
VERTEX
  8
backvia
  10
309.377
  20
239.5
  0
VERTEX
  8
backvia
  10
310.88
  20
239.5
  0
VERTEX
  8
backvia
  10
311.812
  20
239.5
  0
VERTEX
  8
backvia
  10
312.625
  20
239.97
  0
VERTEX
  8
backvia
  10
313.437
  20
240.44
  0
VERTEX
  8
backvia
  10
314.316
  20
241.581
  0
VERTEX
  8
backvia
  10
314.387
  20
240.574
  0
SEQEND
  0
POLYLINE
  8
backvia
  70
1
  66
1
  0
VERTEX
  8
backvia
  10
262.131
  20
243.232
  0
VERTEX
  8
backvia
  10
261.507
  20
242.359
  0
VERTEX
  8
backvia
  10
260.883
  20
241.487
  0
VERTEX
  8
backvia
  10
259.952
  20
241.487
  0
VERTEX
  8
backvia
  10
258.792
  20
241.487
  0
VERTEX
  8
backvia
  10
258.071
  20
242.789
  0
VERTEX
  8
backvia
  10
257.35
  20
244.091
  0
VERTEX
  8
backvia
  10
257.35
  20
246.963
  0
VERTEX
  8
backvia
  10
257.35
  20
249.795
  0
VERTEX
  8
backvia
  10
258.097
  20
251.104
  0
VERTEX
  8
backvia
  10
258.844
  20
252.413
  0
VERTEX
  8
backvia
  10
260.04
  20
252.413
  0
VERTEX
  8
backvia
  10
260.831
  20
252.413
  0
VERTEX
  8
backvia
  10
261.389
  20
251.688
  0
VERTEX
  8
backvia
  10
261.947
  20
250.963
  0
VERTEX
  8
backvia
  10
262.166
  20
249.527
  0
VERTEX
  8
backvia
  10
263.704
  20
249.889
  0
VERTEX
  8
backvia
  10
263.432
  20
252.05
  0
VERTEX
  8
backvia
  10
262.465
  20
253.225
  0
VERTEX
  8
backvia
  10
261.498
  20
254.399
  0
VERTEX
  8
backvia
  10
259.978
  20
254.399
  0
VERTEX
  8
backvia
  10
258.774
  20
254.399
  0
VERTEX
  8
backvia
  10
257.75
  20
253.534
  0
VERTEX
  8
backvia
  10
256.726
  20
252.668
  0
VERTEX
  8
backvia
  10
256.226
  20
250.936
  0
VERTEX
  8
backvia
  10
255.725
  20
249.205
  0
VERTEX
  8
backvia
  10
255.725
  20
246.896
  0
VERTEX
  8
backvia
  10
255.725
  20
243.326
  0
VERTEX
  8
backvia
  10
256.889
  20
241.413
  0
VERTEX
  8
backvia
  10
258.053
  20
239.5
  0
VERTEX
  8
backvia
  10
259.969
  20
239.5
  0
VERTEX
  8
backvia
  10
261.498
  20
239.5
  0
VERTEX
  8
backvia
  10
262.549
  20
240.889
  0
VERTEX
  8
backvia
  10
263.599
  20
242.279
  0
VERTEX
  8
backvia
  10
263.854
  20
244.735
  0
VERTEX
  8
backvia
  10
262.298
  20
245.044
  0
VERTEX
  8
backvia
  10
262.131
  20
243.232
  0
SEQEND
  0
POLYLINE
  8
backvia
  70
1
  66
1
  0
VERTEX
  8
backvia
  10
317.866
  20
241.809
  0
VERTEX
  8
backvia
  10
318.82
  20
240.654
  0
VERTEX
  8
backvia
  10
319.774
  20
239.5
  0
VERTEX
  8
backvia
  10
321.593
  20
239.5
  0
VERTEX
  8
backvia
  10
322.691
  20
239.5
  0
VERTEX
  8
backvia
  10
323.561
  20
240.084
  0
VERTEX
  8
backvia
  10
324.431
  20
240.668
  0
VERTEX
  8
backvia
  10
324.893
  20
241.735
  0
VERTEX
  8
backvia
  10
325.354
  20
242.802
  0
VERTEX
  8
backvia
  10
325.354
  20
244.01
  0
VERTEX
  8
backvia
  10
325.354
  20
245.245
  0
VERTEX
  8
backvia
  10
324.976
  20
246.077
  0
VERTEX
  8
backvia
  10
324.598
  20
246.909
  0
VERTEX
  8
backvia
  10
323.935
  20
247.346
  0
VERTEX
  8
backvia
  10
323.271
  20
247.782
  0
VERTEX
  8
backvia
  10
321.593
  20
248.466
  0
VERTEX
  8
backvia
  10
320.433
  20
248.95
  0
VERTEX
  8
backvia
  10
320.195
  20
249.084
  0
VERTEX
  8
backvia
  10
319.782
  20
249.339
  0
VERTEX
  8
backvia
  10
319.589
  20
249.728
  0
VERTEX
  8
backvia
  10
319.396
  20
250.104
  0
VERTEX
  8
backvia
  10
319.396
  20
250.574
  0
VERTEX
  8
backvia
  10
319.396
  20
251.312
  0
VERTEX
  8
backvia
  10
319.861
  20
251.862
  0
VERTEX
  8
backvia
  10
320.327
  20
252.413
  0
VERTEX
  8
backvia
  10
321.417
  20
252.413
  0
VERTEX
  8
backvia
  10
322.34
  20
252.413
  0
VERTEX
  8
backvia
  10
322.845
  20
251.795
  0
VERTEX
  8
backvia
  10
323.35
  20
251.178
  0
VERTEX
  8
backvia
  10
323.456
  20
250.077
  0
VERTEX
  8
backvia
  10
325.002
  20
250.399
  0
VERTEX
  8
backvia
  10
324.853
  20
251.782
  0
VERTEX
  8
backvia
  10
324.458
  20
252.607
  0
VERTEX
  8
backvia
  10
324.062
  20
253.433
  0
VERTEX
  8
backvia
  10
323.232
  20
253.916
  0
VERTEX
  8
backvia
  10
322.401
  20
254.399
  0
VERTEX
  8
backvia
  10
321.303
  20
254.399
  0
VERTEX
  8
backvia
  10
320.573
  20
254.399
  0
VERTEX
  8
backvia
  10
319.936
  20
254.111
  0
VERTEX
  8
backvia
  10
319.299
  20
253.822
  0
VERTEX
  8
backvia
  10
318.93
  20
253.406
  0
VERTEX
  8
backvia
  10
318.438
  20
252.869
  0
VERTEX
  8
backvia
  10
318.152
  20
252.057
  0
VERTEX
  8
backvia
  10
317.866
  20
251.245
  0
VERTEX
  8
backvia
  10
317.866
  20
250.292
  0
VERTEX
  8
backvia
  10
317.866
  20
249.245
  0
VERTEX
  8
backvia
  10
318.214
  20
248.379
  0
VERTEX
  8
backvia
  10
318.561
  20
247.513
  0
VERTEX
  8
backvia
  10
319.233
  20
247.023
  0
VERTEX
  8
backvia
  10
319.905
  20
246.534
  0
VERTEX
  8
backvia
  10
321.645
  20
245.862
  0
VERTEX
  8
backvia
  10
322.937
  20
245.366
  0
VERTEX
  8
backvia
  10
323.262
  20
245.044
  0
VERTEX
  8
backvia
  10
323.728
  20
244.574
  0
VERTEX
  8
backvia
  10
323.728
  20
243.755
  0
VERTEX
  8
backvia
  10
323.728
  20
242.842
  0
VERTEX
  8
backvia
  10
323.201
  20
242.164
  0
VERTEX
  8
backvia
  10
322.674
  20
241.487
  0
VERTEX
  8
backvia
  10
321.584
  20
241.487
  0
VERTEX
  8
backvia
  10
320.503
  20
241.487
  0
VERTEX
  8
backvia
  10
319.901
  20
242.252
  0
VERTEX
  8
backvia
  10
319.299
  20
243.017
  0
VERTEX
  8
backvia
  10
319.167
  20
244.453
  0
VERTEX
  8
backvia
  10
317.603
  20
244.077
  0
VERTEX
  8
backvia
  10
317.866
  20
241.809
  0
SEQEND
  0
POLYLINE
  8
backvia
  70
1
  66
1
  0
VERTEX
  8
backvia
  10
253.73
  20
239.822
  0
VERTEX
  8
backvia
  10
253.73
  20
254.077
  0
VERTEX
  8
backvia
  10
252.148
  20
254.077
  0
VERTEX
  8
backvia
  10
252.148
  20
246.44
  0
VERTEX
  8
backvia
  10
252.148
  20
244.614
  0
VERTEX
  8
backvia
  10
251.889
  20
243.654
  0
VERTEX
  8
backvia
  10
251.63
  20
242.695
  0
VERTEX
  8
backvia
  10
251.006
  20
242.138
  0
VERTEX
  8
backvia
  10
250.382
  20
241.581
  0
VERTEX
  8
backvia
  10
249.67
  20
241.581
  0
VERTEX
  8
backvia
  10
248.958
  20
241.581
  0
VERTEX
  8
backvia
  10
248.475
  20
242.124
  0
VERTEX
  8
backvia
  10
247.991
  20
242.668
  0
VERTEX
  8
backvia
  10
247.842
  20
243.621
  0
VERTEX
  8
backvia
  10
247.745
  20
244.279
  0
VERTEX
  8
backvia
  10
247.745
  20
246.171
  0
VERTEX
  8
backvia
  10
247.745
  20
254.077
  0
VERTEX
  8
backvia
  10
246.163
  20
254.077
  0
VERTEX
  8
backvia
  10
246.163
  20
245.245
  0
VERTEX
  8
backvia
  10
246.163
  20
243.701
  0
VERTEX
  8
backvia
  10
246.26
  20
242.99
  0
VERTEX
  8
backvia
  10
246.401
  20
241.93
  0
VERTEX
  8
backvia
  10
246.748
  20
241.198
  0
VERTEX
  8
backvia
  10
247.095
  20
240.466
  0
VERTEX
  8
backvia
  10
247.811
  20
239.983
  0
VERTEX
  8
backvia
  10
248.527
  20
239.5
  0
VERTEX
  8
backvia
  10
249.353
  20
239.5
  0
VERTEX
  8
backvia
  10
251.225
  20
239.5
  0
VERTEX
  8
backvia
  10
252.315
  20
241.916
  0
VERTEX
  8
backvia
  10
252.315
  20
239.822
  0
VERTEX
  8
backvia
  10
253.73
  20
239.822
  0
SEQEND
  0
POLYLINE
  8
backvia
  70
1
  66
1
  0
VERTEX
  8
backvia
  10
293.787
  20
239.822
  0
VERTEX
  8
backvia
  10
293.787
  20
247.285
  0
VERTEX
  8
backvia
  10
293.787
  20
248.815
  0
VERTEX
  8
backvia
  10
294.05
  20
250.104
  0
VERTEX
  8
backvia
  10
294.226
  20
250.95
  0
VERTEX
  8
backvia
  10
294.639
  20
251.426
  0
VERTEX
  8
backvia
  10
295.052
  20
251.903
  0
VERTEX
  8
backvia
  10
295.571
  20
251.903
  0
VERTEX
  8
backvia
  10
296.151
  20
251.903
  0
VERTEX
  8
backvia
  10
296.731
  20
251.379
  0
VERTEX
  8
backvia
  10
297.276
  20
253.621
  0
VERTEX
  8
backvia
  10
296.45
  20
254.399
  0
VERTEX
  8
backvia
  10
295.65
  20
254.399
  0
VERTEX
  8
backvia
  10
295.096
  20
254.399
  0
VERTEX
  8
backvia
  10
294.635
  20
253.916
  0
VERTEX
  8
backvia
  10
294.173
  20
253.433
  0
VERTEX
  8
backvia
  10
293.629
  20
251.916
  0
VERTEX
  8
backvia
  10
293.629
  20
254.077
  0
VERTEX
  8
backvia
  10
292.205
  20
254.077
  0
VERTEX
  8
backvia
  10
292.205
  20
239.822
  0
VERTEX
  8
backvia
  10
293.787
  20
239.822
  0
SEQEND
  0
ENDSEC
  0
EOF
