  0
SECTION
  2
HEADER
  9
$ACADVER
  1
AC1009
  9
$INSUNITS
  70
13
  9
$EXTMIN
  10
0
  20
0
  9
$EXTMAX
  10
500
  20
500
  0
ENDSEC
  0
SECTION
  2
TABLES
  0
TABLE
  2
LTYPE
  70
1
  0
LTYPE
  2
CONTINUOUS
  70
64
  3
Solid line
  72
65
  73
0
  40
0
  0
ENDTAB
  0
TABLE
  2
LAYER
  70
3
  0
LAYER
  2
ohmic
  70
0
  62
13
  6
CONTINUOUS
  0
LAYER
  2
met1
  70
0
  62
34
  6
CONTINUOUS
  0
LAYER
  2
backvia
  70
0
  62
7
  6
CONTINUOUS
  0
ENDTAB
  0
ENDSEC
  0
SECTION
  2
BLOCKS
  0
ENDSEC
  0
SECTION
  2
ENTITIES
  0
POLYLINE
  8
ohmic
  70
1
  66
1
  0
VERTEX
  8
ohmic
  10
0
  20
500
  0
VERTEX
  8
ohmic
  10
0
  20
0
  0
VERTEX
  8
ohmic
  10
500
  20
0
  0
VERTEX
  8
ohmic
  10
500
  20
500
  0
VERTEX
  8
ohmic
  10
0
  20
500
  0
SEQEND
  0
POLYLINE
  8
met1
  70
1
  66
1
  0
VERTEX
  8
met1
  10
149.5
  20
376
  0
VERTEX
  8
met1
  10
118.5
  20
376
  0
VERTEX
  8
met1
  10
118.5
  20
448
  0
VERTEX
  8
met1
  10
46.5
  20
448
  0
VERTEX
  8
met1
  10
46.5
  20
326
  0
VERTEX
  8
met1
  10
149.5
  20
326
  0
VERTEX
  8
met1
  10
149.5
  20
376
  0
SEQEND
  0
POLYLINE
  8
met1
  70
1
  66
1
  0
VERTEX
  8
met1
  10
118.5
  20
123
  0
VERTEX
  8
met1
  10
149.5
  20
123
  0
VERTEX
  8
met1
  10
149.5
  20
173
  0
VERTEX
  8
met1
  10
46.5
  20
173
  0
VERTEX
  8
met1
  10
46.5
  20
51
  0
VERTEX
  8
met1
  10
118.5
  20
51
  0
VERTEX
  8
met1
  10
118.5
  20
123
  0
SEQEND
  0
POLYLINE
  8
met1
  70
1
  66
1
  0
VERTEX
  8
met1
  10
350.5
  20
123
  0
VERTEX
  8
met1
  10
381.5
  20
123
  0
VERTEX
  8
met1
  10
381.5
  20
51
  0
VERTEX
  8
met1
  10
453.5
  20
51
  0
VERTEX
  8
met1
  10
453.5
  20
173
  0
VERTEX
  8
met1
  10
350.5
  20
173
  0
VERTEX
  8
met1
  10
350.5
  20
123
  0
SEQEND
  0
POLYLINE
  8
met1
  70
1
  66
1
  0
VERTEX
  8
met1
  10
381.5
  20
376
  0
VERTEX
  8
met1
  10
350.5
  20
376
  0
VERTEX
  8
met1
  10
350.5
  20
326
  0
VERTEX
  8
met1
  10
453.5
  20
326
  0
VERTEX
  8
met1
  10
453.5
  20
448
  0
VERTEX
  8
met1
  10
381.5
  20
448
  0
VERTEX
  8
met1
  10
381.5
  20
376
  0
SEQEND
  0
POLYLINE
  8
met1
  70
1
  66
1
  0
VERTEX
  8
met1
  10
45
  20
212
  0
VERTEX
  8
met1
  10
120
  20
212
  0
VERTEX
  8
met1
  10
120
  20
287
  0
VERTEX
  8
met1
  10
45
  20
287
  0
VERTEX
  8
met1
  10
45
  20
212
  0
SEQEND
  0
POLYLINE
  8
met1
  70
1
  66
1
  0
VERTEX
  8
met1
  10
455
  20
287
  0
VERTEX
  8
met1
  10
380
  20
287
  0
VERTEX
  8
met1
  10
380
  20
212
  0
VERTEX
  8
met1
  10
455
  20
212
  0
VERTEX
  8
met1
  10
455
  20
287
  0
SEQEND
  0
POLYLINE
  8
met1
  70
1
  66
1
  0
VERTEX
  8
met1
  10
279
  20
456.7
  0
VERTEX
  8
met1
  10
279
  20
436.9
  0
VERTEX
  8
met1
  10
287.109
  20
436.9
  0
VERTEX
  8
met1
  10
290.295
  20
438.025
  0
VERTEX
  8
met1
  10
292.588
  20
440.127
  0
VERTEX
  8
met1
  10
293.707
  20
442.178
  0
VERTEX
  8
met1
  10
294.75
  20
445.308
  0
VERTEX
  8
met1
  10
294.75
  20
448.308
  0
VERTEX
  8
met1
  10
293.71
  20
451.255
  0
VERTEX
  8
met1
  10
292.63
  20
453.416
  0
VERTEX
  8
met1
  10
290.31
  20
455.736
  0
VERTEX
  8
met1
  10
287.224
  20
456.7
  0
VERTEX
  8
met1
  10
285.15
  20
456.7
  0
VERTEX
  8
met1
  10
285.15
  20
453.1
  0
VERTEX
  8
met1
  10
286.676
  20
453.1
  0
VERTEX
  8
met1
  10
288.391
  20
452.564
  0
VERTEX
  8
met1
  10
289.671
  20
451.284
  0
VERTEX
  8
met1
  10
290.39
  20
449.845
  0
VERTEX
  8
met1
  10
291.15
  20
447.692
  0
VERTEX
  8
met1
  10
291.15
  20
445.892
  0
VERTEX
  8
met1
  10
290.394
  20
443.622
  0
VERTEX
  8
met1
  10
289.712
  20
442.373
  0
VERTEX
  8
met1
  10
288.405
  20
441.175
  0
VERTEX
  8
met1
  10
286.492
  20
440.5
  0
VERTEX
  8
met1
  10
282.6
  20
440.5
  0
VERTEX
  8
met1
  10
282.6
  20
456.7
  0
VERTEX
  8
met1
  10
279
  20
456.7
  0
SEQEND
  0
POLYLINE
  8
met1
  70
1
  66
1
  0
VERTEX
  8
met1
  10
315.4
  20
444.26
  0
VERTEX
  8
met1
  10
314.196
  20
446.467
  0
VERTEX
  8
met1
  10
313.544
  20
447.25
  0
VERTEX
  8
met1
  10
314.196
  20
448.033
  0
VERTEX
  8
met1
  10
315.4
  20
450.24
  0
VERTEX
  8
met1
  10
315.4
  20
451.989
  0
VERTEX
  8
met1
  10
314.318
  20
454.37
  0
VERTEX
  8
met1
  10
312.855
  20
455.589
  0
VERTEX
  8
met1
  10
309.709
  20
456.7
  0
VERTEX
  8
met1
  10
305.8
  20
456.7
  0
VERTEX
  8
met1
  10
305.8
  20
453.1
  0
VERTEX
  8
met1
  10
309.092
  20
453.1
  0
VERTEX
  8
met1
  10
311.045
  20
452.411
  0
VERTEX
  8
met1
  10
311.383
  20
452.13
  0
VERTEX
  8
met1
  10
311.8
  20
451.211
  0
VERTEX
  8
met1
  10
311.8
  20
451.16
  0
VERTEX
  8
met1
  10
311.204
  20
450.067
  0
VERTEX
  8
met1
  10
310.895
  20
449.696
  0
VERTEX
  8
met1
  10
308.958
  20
449.05
  0
VERTEX
  8
met1
  10
303.4
  20
449.05
  0
VERTEX
  8
met1
  10
303.4
  20
456.7
  0
VERTEX
  8
met1
  10
299.8
  20
456.7
  0
VERTEX
  8
met1
  10
299.8
  20
436.9
  0
VERTEX
  8
met1
  10
303.4
  20
436.9
  0
VERTEX
  8
met1
  10
303.4
  20
445.45
  0
VERTEX
  8
met1
  10
308.958
  20
445.45
  0
VERTEX
  8
met1
  10
310.895
  20
444.804
  0
VERTEX
  8
met1
  10
311.204
  20
444.433
  0
VERTEX
  8
met1
  10
311.8
  20
443.34
  0
VERTEX
  8
met1
  10
311.8
  20
442.389
  0
VERTEX
  8
met1
  10
311.383
  20
441.47
  0
VERTEX
  8
met1
  10
311.045
  20
441.189
  0
VERTEX
  8
met1
  10
309.092
  20
440.5
  0
VERTEX
  8
met1
  10
305.8
  20
440.5
  0
VERTEX
  8
met1
  10
305.8
  20
436.9
  0
VERTEX
  8
met1
  10
309.709
  20
436.9
  0
VERTEX
  8
met1
  10
312.855
  20
438.011
  0
VERTEX
  8
met1
  10
314.318
  20
439.23
  0
VERTEX
  8
met1
  10
315.4
  20
441.611
  0
VERTEX
  8
met1
  10
315.4
  20
444.26
  0
SEQEND
  0
POLYLINE
  8
met1
  70
1
  66
1
  0
VERTEX
  8
met1
  10
241.885
  20
453.1
  0
VERTEX
  8
met1
  10
247.718
  20
453.1
  0
VERTEX
  8
met1
  10
244.885
  20
449.354
  0
VERTEX
  8
met1
  10
246.082
  20
446.95
  0
VERTEX
  8
met1
  10
248.299
  20
446.95
  0
VERTEX
  8
met1
  10
249.416
  20
446.298
  0
VERTEX
  8
met1
  10
249.868
  20
445.772
  0
VERTEX
  8
met1
  10
250.435
  20
443.841
  0
VERTEX
  8
met1
  10
250.435
  20
442.54
  0
VERTEX
  8
met1
  10
250.162
  20
441.537
  0
VERTEX
  8
met1
  10
249.477
  20
440.776
  0
VERTEX
  8
met1
  10
248.281
  20
440.5
  0
VERTEX
  8
met1
  10
244.066
  20
440.5
  0
VERTEX
  8
met1
  10
243.451
  20
440.774
  0
VERTEX
  8
met1
  10
242.218
  20
442.253
  0
VERTEX
  8
met1
  10
239.452
  20
439.947
  0
VERTEX
  8
met1
  10
241.22
  20
437.826
  0
VERTEX
  8
met1
  10
243.304
  20
436.9
  0
VERTEX
  8
met1
  10
248.69
  20
436.9
  0
VERTEX
  8
met1
  10
251.393
  20
437.524
  0
VERTEX
  8
met1
  10
253.409
  20
439.763
  0
VERTEX
  8
met1
  10
254.035
  20
442.06
  0
VERTEX
  8
met1
  10
254.035
  20
444.359
  0
VERTEX
  8
met1
  10
253.103
  20
447.528
  0
VERTEX
  8
met1
  10
251.755
  20
449.102
  0
VERTEX
  8
met1
  10
249.987
  20
450.132
  0
VERTEX
  8
met1
  10
253.135
  20
454.296
  0
VERTEX
  8
met1
  10
251.939
  20
456.7
  0
VERTEX
  8
met1
  10
241.885
  20
456.7
  0
VERTEX
  8
met1
  10
241.885
  20
453.1
  0
SEQEND
  0
POLYLINE
  8
met1
  70
1
  66
1
  0
VERTEX
  8
met1
  10
220.957
  20
436.3
  0
VERTEX
  8
met1
  10
226.014
  20
436.3
  0
VERTEX
  8
met1
  10
225.803
  20
436.736
  0
VERTEX
  8
met1
  10
225.67
  20
437.032
  0
VERTEX
  8
met1
  10
225.538
  20
437.328
  0
VERTEX
  8
met1
  10
225.433
  20
437.577
  0
VERTEX
  8
met1
  10
225.415
  20
437.64
  0
VERTEX
  8
met1
  10
225.388
  20
437.702
  0
VERTEX
  8
met1
  10
225.362
  20
437.764
  0
VERTEX
  8
met1
  10
225.344
  20
437.826
  0
VERTEX
  8
met1
  10
225.239
  20
438.107
  0
VERTEX
  8
met1
  10
225.124
  20
438.45
  0
VERTEX
  8
met1
  10
225.01
  20
438.792
  0
VERTEX
  8
met1
  10
224.833
  20
439.291
  0
VERTEX
  8
met1
  10
222.085
  20
447.515
  0
VERTEX
  8
met1
  10
223.935
  20
450.007
  0
VERTEX
  8
met1
  10
224.129
  20
450.256
  0
VERTEX
  8
met1
  10
224.349
  20
450.443
  0
VERTEX
  8
met1
  10
224.569
  20
450.63
  0
VERTEX
  8
met1
  10
224.798
  20
450.755
  0
VERTEX
  8
met1
  10
224.851
  20
450.786
  0
VERTEX
  8
met1
  10
224.895
  20
450.817
  0
VERTEX
  8
met1
  10
224.939
  20
450.848
  0
VERTEX
  8
met1
  10
224.992
  20
450.879
  0
VERTEX
  8
met1
  10
224.992
  20
450.942
  0
VERTEX
  8
met1
  10
221.204
  20
450.942
  0
VERTEX
  8
met1
  10
221.186
  20
450.817
  0
VERTEX
  8
met1
  10
221.168
  20
450.677
  0
VERTEX
  8
met1
  10
221.151
  20
450.537
  0
VERTEX
  8
met1
  10
221.133
  20
450.412
  0
VERTEX
  8
met1
  10
221.063
  20
450.038
  0
VERTEX
  8
met1
  10
220.895
  20
449.633
  0
VERTEX
  8
met1
  10
220.728
  20
449.228
  0
VERTEX
  8
met1
  10
220.323
  20
448.636
  0
VERTEX
  8
met1
  10
218.331
  20
445.802
  0
VERTEX
  8
met1
  10
218.331
  20
456.3
  0
VERTEX
  8
met1
  10
213.715
  20
456.3
  0
VERTEX
  8
met1
  10
213.732
  20
456.238
  0
VERTEX
  8
met1
  10
213.75
  20
456.191
  0
VERTEX
  8
met1
  10
213.768
  20
456.144
  0
VERTEX
  8
met1
  10
213.785
  20
456.082
  0
VERTEX
  8
met1
  10
213.944
  20
455.583
  0
VERTEX
  8
met1
  10
214.058
  20
454.945
  0
VERTEX
  8
met1
  10
214.173
  20
454.306
  0
VERTEX
  8
met1
  10
214.173
  20
452.935
  0
VERTEX
  8
met1
  10
214.173
  20
439.664
  0
VERTEX
  8
met1
  10
214.173
  20
438.294
  0
VERTEX
  8
met1
  10
214.058
  20
437.655
  0
VERTEX
  8
met1
  10
213.944
  20
437.017
  0
VERTEX
  8
met1
  10
213.785
  20
436.518
  0
VERTEX
  8
met1
  10
213.768
  20
436.456
  0
VERTEX
  8
met1
  10
213.75
  20
436.409
  0
VERTEX
  8
met1
  10
213.732
  20
436.362
  0
VERTEX
  8
met1
  10
213.715
  20
436.3
  0
VERTEX
  8
met1
  10
218.79
  20
436.3
  0
VERTEX
  8
met1
  10
218.772
  20
436.362
  0
VERTEX
  8
met1
  10
218.754
  20
436.409
  0
VERTEX
  8
met1
  10
218.737
  20
436.456
  0
VERTEX
  8
met1
  10
218.719
  20
436.518
  0
VERTEX
  8
met1
  10
218.56
  20
437.017
  0
VERTEX
  8
met1
  10
218.446
  20
437.655
  0
VERTEX
  8
met1
  10
218.331
  20
438.294
  0
VERTEX
  8
met1
  10
218.331
  20
439.664
  0
VERTEX
  8
met1
  10
218.331
  20
442.126
  0
VERTEX
  8
met1
  10
219.036
  20
443.122
  0
VERTEX
  8
met1
  10
220.957
  20
436.3
  0
SEQEND
  0
POLYLINE
  8
met1
  70
1
  66
1
  0
VERTEX
  8
met1
  10
190.526
  20
456.3
  0
VERTEX
  8
met1
  10
189.152
  20
456.3
  0
VERTEX
  8
met1
  10
188.412
  20
454.976
  0
VERTEX
  8
met1
  10
187.672
  20
453.652
  0
VERTEX
  8
met1
  10
187.672
  20
450.381
  0
VERTEX
  8
met1
  10
187.672
  20
442.157
  0
VERTEX
  8
met1
  10
187.672
  20
438.948
  0
VERTEX
  8
met1
  10
188.412
  20
437.624
  0
VERTEX
  8
met1
  10
189.152
  20
436.3
  0
VERTEX
  8
met1
  10
190.526
  20
436.3
  0
VERTEX
  8
met1
  10
197.504
  20
436.3
  0
VERTEX
  8
met1
  10
197.874
  20
440.35
  0
VERTEX
  8
met1
  10
197.804
  20
440.288
  0
VERTEX
  8
met1
  10
197.733
  20
440.225
  0
VERTEX
  8
met1
  10
197.663
  20
440.163
  0
VERTEX
  8
met1
  10
197.592
  20
440.101
  0
VERTEX
  8
met1
  10
197.275
  20
439.851
  0
VERTEX
  8
met1
  10
196.808
  20
439.727
  0
VERTEX
  8
met1
  10
196.341
  20
439.602
  0
VERTEX
  8
met1
  10
195.249
  20
439.602
  0
VERTEX
  8
met1
  10
192.817
  20
439.602
  0
VERTEX
  8
met1
  10
192.394
  20
439.602
  0
VERTEX
  8
met1
  10
192.183
  20
439.883
  0
VERTEX
  8
met1
  10
191.971
  20
440.163
  0
VERTEX
  8
met1
  10
191.971
  20
440.879
  0
VERTEX
  8
met1
  10
191.971
  20
451.658
  0
VERTEX
  8
met1
  10
191.971
  20
452.437
  0
VERTEX
  8
met1
  10
192.183
  20
452.717
  0
VERTEX
  8
met1
  10
192.394
  20
452.998
  0
VERTEX
  8
met1
  10
192.817
  20
452.998
  0
VERTEX
  8
met1
  10
195.936
  20
452.998
  0
VERTEX
  8
met1
  10
196.482
  20
452.998
  0
VERTEX
  8
met1
  10
196.835
  20
452.873
  0
VERTEX
  8
met1
  10
197.187
  20
452.749
  0
VERTEX
  8
met1
  10
197.504
  20
452.562
  0
VERTEX
  8
met1
  10
197.539
  20
452.562
  0
VERTEX
  8
met1
  10
197.583
  20
452.531
  0
VERTEX
  8
met1
  10
197.628
  20
452.499
  0
VERTEX
  8
met1
  10
197.663
  20
452.468
  0
VERTEX
  8
met1
  10
197.328
  20
456.3
  0
VERTEX
  8
met1
  10
190.526
  20
456.3
  0
SEQEND
  0
POLYLINE
  8
met1
  70
1
  66
1
  0
VERTEX
  8
met1
  10
159.619
  20
450.942
  0
VERTEX
  8
met1
  10
159.619
  20
448.076
  0
VERTEX
  8
met1
  10
161.399
  20
448.076
  0
VERTEX
  8
met1
  10
161.399
  20
440.879
  0
VERTEX
  8
met1
  10
161.399
  20
438.138
  0
VERTEX
  8
met1
  10
162.139
  20
437.219
  0
VERTEX
  8
met1
  10
162.879
  20
436.3
  0
VERTEX
  8
met1
  10
163.866
  20
436.3
  0
VERTEX
  8
met1
  10
169.117
  20
436.3
  0
VERTEX
  8
met1
  10
169.381
  20
439.727
  0
VERTEX
  8
met1
  10
169.328
  20
439.696
  0
VERTEX
  8
met1
  10
169.24
  20
439.618
  0
VERTEX
  8
met1
  10
169.152
  20
439.54
  0
VERTEX
  8
met1
  10
169.029
  20
439.478
  0
VERTEX
  8
met1
  10
168.835
  20
439.353
  0
VERTEX
  8
met1
  10
168.535
  20
439.259
  0
VERTEX
  8
met1
  10
168.236
  20
439.166
  0
VERTEX
  8
met1
  10
167.848
  20
439.166
  0
VERTEX
  8
met1
  10
166.386
  20
439.166
  0
VERTEX
  8
met1
  10
165.839
  20
439.166
  0
VERTEX
  8
met1
  10
165.698
  20
439.415
  0
VERTEX
  8
met1
  10
165.557
  20
439.664
  0
VERTEX
  8
met1
  10
165.557
  20
440.35
  0
VERTEX
  8
met1
  10
165.557
  20
448.076
  0
VERTEX
  8
met1
  10
168.905
  20
448.076
  0
VERTEX
  8
met1
  10
168.905
  20
450.942
  0
VERTEX
  8
met1
  10
165.557
  20
450.942
  0
VERTEX
  8
met1
  10
165.557
  20
454.182
  0
VERTEX
  8
met1
  10
161.399
  20
453.995
  0
VERTEX
  8
met1
  10
161.399
  20
450.942
  0
VERTEX
  8
met1
  10
159.619
  20
450.942
  0
SEQEND
  0
POLYLINE
  8
met1
  70
1
  66
1
  0
VERTEX
  8
met1
  10
180.606
  20
448.854
  0
VERTEX
  8
met1
  10
180.483
  20
449.353
  0
VERTEX
  8
met1
  10
180.421
  20
449.711
  0
VERTEX
  8
met1
  10
180.359
  20
450.069
  0
VERTEX
  8
met1
  10
180.359
  20
450.319
  0
VERTEX
  8
met1
  10
180.359
  20
450.443
  0
VERTEX
  8
met1
  10
180.377
  20
450.599
  0
VERTEX
  8
met1
  10
180.395
  20
450.755
  0
VERTEX
  8
met1
  10
180.412
  20
450.942
  0
VERTEX
  8
met1
  10
175.408
  20
450.942
  0
VERTEX
  8
met1
  10
175.479
  20
450.817
  0
VERTEX
  8
met1
  10
175.54
  20
450.677
  0
VERTEX
  8
met1
  10
175.602
  20
450.537
  0
VERTEX
  8
met1
  10
175.655
  20
450.412
  0
VERTEX
  8
met1
  10
175.76
  20
450.132
  0
VERTEX
  8
met1
  10
175.831
  20
449.867
  0
VERTEX
  8
met1
  10
175.901
  20
449.602
  0
VERTEX
  8
met1
  10
175.954
  20
449.353
  0
VERTEX
  8
met1
  10
179.196
  20
436.3
  0
VERTEX
  8
met1
  10
183.619
  20
436.3
  0
VERTEX
  8
met1
  10
186.333
  20
447.92
  0
VERTEX
  8
met1
  10
186.403
  20
448.231
  0
VERTEX
  8
met1
  10
186.456
  20
448.465
  0
VERTEX
  8
met1
  10
186.509
  20
448.699
  0
VERTEX
  8
met1
  10
186.579
  20
448.917
  0
VERTEX
  8
met1
  10
186.597
  20
449.01
  0
VERTEX
  8
met1
  10
186.624
  20
449.104
  0
VERTEX
  8
met1
  10
186.65
  20
449.197
  0
VERTEX
  8
met1
  10
186.685
  20
449.291
  0
VERTEX
  8
met1
  10
186.773
  20
449.633
  0
VERTEX
  8
met1
  10
186.905
  20
450.007
  0
VERTEX
  8
met1
  10
187.038
  20
450.381
  0
VERTEX
  8
met1
  10
187.267
  20
450.942
  0
VERTEX
  8
met1
  10
184.817
  20
450.942
  0
VERTEX
  8
met1
  10
184.87
  20
450.724
  0
VERTEX
  8
met1
  10
184.897
  20
450.506
  0
VERTEX
  8
met1
  10
184.923
  20
450.288
  0
VERTEX
  8
met1
  10
184.923
  20
450.069
  0
VERTEX
  8
met1
  10
184.923
  20
449.851
  0
VERTEX
  8
met1
  10
184.897
  20
449.618
  0
VERTEX
  8
met1
  10
184.87
  20
449.384
  0
VERTEX
  8
met1
  10
184.817
  20
449.166
  0
VERTEX
  8
met1
  10
182.703
  20
440.101
  0
VERTEX
  8
met1
  10
180.606
  20
448.854
  0
SEQEND
  0
POLYLINE
  8
met1
  70
1
  66
1
  0
VERTEX
  8
met1
  10
153.98
  20
447.39
  0
VERTEX
  8
met1
  10
154.2
  20
447.733
  0
VERTEX
  8
met1
  10
154.42
  20
448.076
  0
VERTEX
  8
met1
  10
154.914
  20
448.076
  0
VERTEX
  8
met1
  10
157.292
  20
448.076
  0
VERTEX
  8
met1
  10
158.068
  20
448.076
  0
VERTEX
  8
met1
  10
158.561
  20
447.889
  0
VERTEX
  8
met1
  10
159.054
  20
447.702
  0
VERTEX
  8
met1
  10
159.284
  20
447.297
  0
VERTEX
  8
met1
  10
158.913
  20
450.942
  0
VERTEX
  8
met1
  10
152.412
  20
450.942
  0
VERTEX
  8
met1
  10
150.984
  20
450.942
  0
VERTEX
  8
met1
  10
150.394
  20
449.68
  0
VERTEX
  8
met1
  10
149.804
  20
448.418
  0
VERTEX
  8
met1
  10
149.804
  20
446.393
  0
VERTEX
  8
met1
  10
149.804
  20
440.848
  0
VERTEX
  8
met1
  10
149.804
  20
438.855
  0
VERTEX
  8
met1
  10
150.394
  20
437.577
  0
VERTEX
  8
met1
  10
150.984
  20
436.3
  0
VERTEX
  8
met1
  10
152.412
  20
436.3
  0
VERTEX
  8
met1
  10
158.878
  20
436.3
  0
VERTEX
  8
met1
  10
159.178
  20
439.883
  0
VERTEX
  8
met1
  10
159.143
  20
439.851
  0
VERTEX
  8
met1
  10
159.107
  20
439.82
  0
VERTEX
  8
met1
  10
159.072
  20
439.789
  0
VERTEX
  8
met1
  10
159.037
  20
439.758
  0
VERTEX
  8
met1
  10
158.72
  20
439.509
  0
VERTEX
  8
met1
  10
158.306
  20
439.337
  0
VERTEX
  8
met1
  10
157.891
  20
439.166
  0
VERTEX
  8
met1
  10
156.94
  20
439.166
  0
VERTEX
  8
met1
  10
154.914
  20
439.166
  0
VERTEX
  8
met1
  10
154.42
  20
439.166
  0
VERTEX
  8
met1
  10
154.2
  20
439.524
  0
VERTEX
  8
met1
  10
153.98
  20
439.883
  0
VERTEX
  8
met1
  10
153.962
  20
440.661
  0
VERTEX
  8
met1
  10
153.962
  20
446.58
  0
VERTEX
  8
met1
  10
153.98
  20
447.39
  0
SEQEND
  0
POLYLINE
  8
met1
  70
1
  66
1
  0
VERTEX
  8
met1
  10
204.747
  20
450.879
  0
VERTEX
  8
met1
  10
204.764
  20
450.833
  0
VERTEX
  8
met1
  10
204.782
  20
450.786
  0
VERTEX
  8
met1
  10
204.8
  20
450.724
  0
VERTEX
  8
met1
  10
204.958
  20
450.225
  0
VERTEX
  8
met1
  10
205.073
  20
449.587
  0
VERTEX
  8
met1
  10
205.187
  20
448.948
  0
VERTEX
  8
met1
  10
205.187
  20
447.577
  0
VERTEX
  8
met1
  10
205.187
  20
439.664
  0
VERTEX
  8
met1
  10
205.187
  20
438.294
  0
VERTEX
  8
met1
  10
205.073
  20
437.655
  0
VERTEX
  8
met1
  10
204.958
  20
437.017
  0
VERTEX
  8
met1
  10
204.8
  20
436.518
  0
VERTEX
  8
met1
  10
204.782
  20
436.456
  0
VERTEX
  8
met1
  10
204.764
  20
436.409
  0
VERTEX
  8
met1
  10
204.747
  20
436.362
  0
VERTEX
  8
met1
  10
204.729
  20
436.3
  0
VERTEX
  8
met1
  10
209.804
  20
436.3
  0
VERTEX
  8
met1
  10
209.786
  20
436.362
  0
VERTEX
  8
met1
  10
209.769
  20
436.409
  0
VERTEX
  8
met1
  10
209.751
  20
436.456
  0
VERTEX
  8
met1
  10
209.733
  20
436.518
  0
VERTEX
  8
met1
  10
209.575
  20
437.017
  0
VERTEX
  8
met1
  10
209.46
  20
437.655
  0
VERTEX
  8
met1
  10
209.346
  20
438.294
  0
VERTEX
  8
met1
  10
209.346
  20
439.664
  0
VERTEX
  8
met1
  10
209.346
  20
444.369
  0
VERTEX
  8
met1
  10
209.346
  20
445.864
  0
VERTEX
  8
met1
  10
209.707
  20
446.362
  0
VERTEX
  8
met1
  10
210.068
  20
446.861
  0
VERTEX
  8
met1
  10
211.302
  20
446.861
  0
VERTEX
  8
met1
  10
211.989
  20
446.861
  0
VERTEX
  8
met1
  10
212.315
  20
446.783
  0
VERTEX
  8
met1
  10
212.641
  20
446.705
  0
VERTEX
  8
met1
  10
212.887
  20
446.487
  0
VERTEX
  8
met1
  10
212.975
  20
446.425
  0
VERTEX
  8
met1
  10
213.064
  20
446.331
  0
VERTEX
  8
met1
  10
213.152
  20
446.238
  0
VERTEX
  8
met1
  10
213.257
  20
446.144
  0
VERTEX
  8
met1
  10
213.257
  20
450.942
  0
VERTEX
  8
met1
  10
211.196
  20
450.942
  0
VERTEX
  8
met1
  10
210.227
  20
450.942
  0
VERTEX
  8
met1
  10
209.795
  20
450.412
  0
VERTEX
  8
met1
  10
209.363
  20
449.883
  0
VERTEX
  8
met1
  10
209.064
  20
448.574
  0
VERTEX
  8
met1
  10
209.028
  20
448.574
  0
VERTEX
  8
met1
  10
208.887
  20
450.942
  0
VERTEX
  8
met1
  10
204.729
  20
450.942
  0
VERTEX
  8
met1
  10
204.747
  20
450.879
  0
SEQEND
  0
POLYLINE
  8
met1
  70
1
  66
1
  0
VERTEX
  8
met1
  10
170.58
  20
438.294
  0
VERTEX
  8
met1
  10
170.465
  20
437.655
  0
VERTEX
  8
met1
  10
170.35
  20
437.017
  0
VERTEX
  8
met1
  10
170.192
  20
436.518
  0
VERTEX
  8
met1
  10
170.174
  20
436.456
  0
VERTEX
  8
met1
  10
170.157
  20
436.409
  0
VERTEX
  8
met1
  10
170.139
  20
436.362
  0
VERTEX
  8
met1
  10
170.121
  20
436.3
  0
VERTEX
  8
met1
  10
175.196
  20
436.3
  0
VERTEX
  8
met1
  10
175.179
  20
436.362
  0
VERTEX
  8
met1
  10
175.161
  20
436.409
  0
VERTEX
  8
met1
  10
175.143
  20
436.456
  0
VERTEX
  8
met1
  10
175.126
  20
436.518
  0
VERTEX
  8
met1
  10
174.967
  20
437.017
  0
VERTEX
  8
met1
  10
174.853
  20
437.655
  0
VERTEX
  8
met1
  10
174.738
  20
438.294
  0
VERTEX
  8
met1
  10
174.738
  20
439.664
  0
VERTEX
  8
met1
  10
174.738
  20
450.942
  0
VERTEX
  8
met1
  10
170.121
  20
450.942
  0
VERTEX
  8
met1
  10
170.139
  20
450.879
  0
VERTEX
  8
met1
  10
170.157
  20
450.833
  0
VERTEX
  8
met1
  10
170.174
  20
450.786
  0
VERTEX
  8
met1
  10
170.192
  20
450.724
  0
VERTEX
  8
met1
  10
170.35
  20
450.225
  0
VERTEX
  8
met1
  10
170.465
  20
449.587
  0
VERTEX
  8
met1
  10
170.58
  20
448.948
  0
VERTEX
  8
met1
  10
170.58
  20
447.577
  0
VERTEX
  8
met1
  10
170.58
  20
439.664
  0
VERTEX
  8
met1
  10
170.58
  20
438.294
  0
SEQEND
  0
POLYLINE
  8
met1
  70
1
  66
1
  0
VERTEX
  8
met1
  10
199.055
  20
438.294
  0
VERTEX
  8
met1
  10
198.94
  20
437.655
  0
VERTEX
  8
met1
  10
198.826
  20
437.017
  0
VERTEX
  8
met1
  10
198.667
  20
436.518
  0
VERTEX
  8
met1
  10
198.649
  20
436.456
  0
VERTEX
  8
met1
  10
198.632
  20
436.409
  0
VERTEX
  8
met1
  10
198.614
  20
436.362
  0
VERTEX
  8
met1
  10
198.597
  20
436.3
  0
VERTEX
  8
met1
  10
203.671
  20
436.3
  0
VERTEX
  8
met1
  10
203.654
  20
436.362
  0
VERTEX
  8
met1
  10
203.636
  20
436.409
  0
VERTEX
  8
met1
  10
203.618
  20
436.456
  0
VERTEX
  8
met1
  10
203.601
  20
436.518
  0
VERTEX
  8
met1
  10
203.442
  20
437.017
  0
VERTEX
  8
met1
  10
203.328
  20
437.655
  0
VERTEX
  8
met1
  10
203.213
  20
438.294
  0
VERTEX
  8
met1
  10
203.213
  20
439.664
  0
VERTEX
  8
met1
  10
203.213
  20
450.942
  0
VERTEX
  8
met1
  10
198.597
  20
450.942
  0
VERTEX
  8
met1
  10
198.614
  20
450.879
  0
VERTEX
  8
met1
  10
198.632
  20
450.833
  0
VERTEX
  8
met1
  10
198.649
  20
450.786
  0
VERTEX
  8
met1
  10
198.667
  20
450.724
  0
VERTEX
  8
met1
  10
198.826
  20
450.225
  0
VERTEX
  8
met1
  10
198.94
  20
449.587
  0
VERTEX
  8
met1
  10
199.055
  20
448.948
  0
VERTEX
  8
met1
  10
199.055
  20
447.577
  0
VERTEX
  8
met1
  10
199.055
  20
439.664
  0
VERTEX
  8
met1
  10
199.055
  20
438.294
  0
SEQEND
  0
POLYLINE
  8
met1
  70
1
  66
1
  0
VERTEX
  8
met1
  10
141.9
  20
443.281
  0
VERTEX
  8
met1
  10
141.928
  20
443.309
  0
VERTEX
  8
met1
  10
142.403
  20
443.34
  0
VERTEX
  8
met1
  10
144.253
  20
443.34
  0
VERTEX
  8
met1
  10
144.253
  20
439.851
  0
VERTEX
  8
met1
  10
144.113
  20
439.509
  0
VERTEX
  8
met1
  10
143.986
  20
439.2
  0
VERTEX
  8
met1
  10
148.447
  20
439.2
  0
VERTEX
  8
met1
  10
148.447
  20
448.45
  0
VERTEX
  8
met1
  10
147.161
  20
450.942
  0
VERTEX
  8
met1
  10
141.9
  20
450.942
  0
VERTEX
  8
met1
  10
141.9
  20
448.076
  0
VERTEX
  8
met1
  10
143.989
  20
448.076
  0
VERTEX
  8
met1
  10
144.253
  20
447.64
  0
VERTEX
  8
met1
  10
144.253
  20
446.643
  0
VERTEX
  8
met1
  10
143.989
  20
446.207
  0
VERTEX
  8
met1
  10
141.9
  20
446.207
  0
VERTEX
  8
met1
  10
141.9
  20
443.281
  0
SEQEND
  0
POLYLINE
  8
met1
  70
1
  66
1
  0
VERTEX
  8
met1
  10
137.364
  20
438.45
  0
VERTEX
  8
met1
  10
138.368
  20
436.3
  0
VERTEX
  8
met1
  10
141.5
  20
436.3
  0
VERTEX
  8
met1
  10
141.5
  20
446.207
  0
VERTEX
  8
met1
  10
138.368
  20
446.207
  0
VERTEX
  8
met1
  10
137.866
  20
445.147
  0
VERTEX
  8
met1
  10
137.364
  20
444.088
  0
VERTEX
  8
met1
  10
137.364
  20
438.45
  0
SEQEND
  0
POLYLINE
  8
met1
  70
1
  66
1
  0
VERTEX
  8
met1
  10
141.9
  20
436.3
  0
VERTEX
  8
met1
  10
143.566
  20
436.3
  0
VERTEX
  8
met1
  10
143.91
  20
436.627
  0
VERTEX
  8
met1
  10
144.253
  20
436.954
  0
VERTEX
  8
met1
  10
144.412
  20
437.92
  0
VERTEX
  8
met1
  10
144.447
  20
437.92
  0
VERTEX
  8
met1
  10
144.659
  20
436.3
  0
VERTEX
  8
met1
  10
148.852
  20
436.3
  0
VERTEX
  8
met1
  10
148.676
  20
436.736
  0
VERTEX
  8
met1
  10
148.562
  20
437.328
  0
VERTEX
  8
met1
  10
148.447
  20
437.92
  0
VERTEX
  8
met1
  10
148.447
  20
439.2
  0
VERTEX
  8
met1
  10
143.986
  20
439.2
  0
VERTEX
  8
met1
  10
143.972
  20
439.166
  0
VERTEX
  8
met1
  10
142.403
  20
439.166
  0
VERTEX
  8
met1
  10
141.928
  20
439.197
  0
VERTEX
  8
met1
  10
141.925
  20
439.2
  0
VERTEX
  8
met1
  10
141.9
  20
439.2
  0
VERTEX
  8
met1
  10
141.9
  20
436.3
  0
SEQEND
  0
POLYLINE
  8
met1
  70
1
  66
1
  0
VERTEX
  8
met1
  10
170.615
  20
452.437
  0
VERTEX
  8
met1
  10
174.703
  20
452.437
  0
VERTEX
  8
met1
  10
174.703
  20
456.3
  0
VERTEX
  8
met1
  10
170.615
  20
456.3
  0
VERTEX
  8
met1
  10
170.615
  20
452.437
  0
SEQEND
  0
POLYLINE
  8
met1
  70
1
  66
1
  0
VERTEX
  8
met1
  10
199.09
  20
452.437
  0
VERTEX
  8
met1
  10
203.178
  20
452.437
  0
VERTEX
  8
met1
  10
203.178
  20
456.3
  0
VERTEX
  8
met1
  10
199.09
  20
456.3
  0
VERTEX
  8
met1
  10
199.09
  20
452.437
  0
SEQEND
  0
POLYLINE
  8
met1
  70
1
  66
1
  0
VERTEX
  8
met1
  10
137.752
  20
447.453
  0
VERTEX
  8
met1
  10
137.84
  20
447.515
  0
VERTEX
  8
met1
  10
137.91
  20
447.577
  0
VERTEX
  8
met1
  10
137.981
  20
447.64
  0
VERTEX
  8
met1
  10
138.051
  20
447.702
  0
VERTEX
  8
met1
  10
138.333
  20
447.889
  0
VERTEX
  8
met1
  10
138.641
  20
447.982
  0
VERTEX
  8
met1
  10
138.95
  20
448.076
  0
VERTEX
  8
met1
  10
141.9
  20
448.076
  0
VERTEX
  8
met1
  10
141.9
  20
450.942
  0
VERTEX
  8
met1
  10
138.051
  20
450.942
  0
VERTEX
  8
met1
  10
137.752
  20
447.453
  0
SEQEND
  0
POLYLINE
  8
backvia
  70
1
  66
1
  0
VERTEX
  8
backvia
  10
119.5
  20
132.5
  0
VERTEX
  8
backvia
  10
119.5
  20
163.5
  0
VERTEX
  8
backvia
  10
144.5
  20
163.5
  0
VERTEX
  8
backvia
  10
144.5
  20
132.5
  0
VERTEX
  8
backvia
  10
119.5
  20
132.5
  0
SEQEND
  0
POLYLINE
  8
backvia
  70
1
  66
1
  0
VERTEX
  8
backvia
  10
119.5
  20
335.5
  0
VERTEX
  8
backvia
  10
119.5
  20
366.5
  0
VERTEX
  8
backvia
  10
144.5
  20
366.5
  0
VERTEX
  8
backvia
  10
144.5
  20
335.5
  0
VERTEX
  8
backvia
  10
119.5
  20
335.5
  0
SEQEND
  0
POLYLINE
  8
backvia
  70
1
  66
1
  0
VERTEX
  8
backvia
  10
380.5
  20
366.5
  0
VERTEX
  8
backvia
  10
380.5
  20
335.5
  0
VERTEX
  8
backvia
  10
355.5
  20
335.5
  0
VERTEX
  8
backvia
  10
355.5
  20
366.5
  0
VERTEX
  8
backvia
  10
380.5
  20
366.5
  0
SEQEND
  0
POLYLINE
  8
backvia
  70
1
  66
1
  0
VERTEX
  8
backvia
  10
380.5
  20
163.5
  0
VERTEX
  8
backvia
  10
380.5
  20
132.5
  0
VERTEX
  8
backvia
  10
355.5
  20
132.5
  0
VERTEX
  8
backvia
  10
355.5
  20
163.5
  0
VERTEX
  8
backvia
  10
380.5
  20
163.5
  0
SEQEND
  0
POLYLINE
  8
backvia
  70
1
  66
1
  0
VERTEX
  8
backvia
  10
234.5
  20
399.5
  0
VERTEX
  8
backvia
  10
265.5
  20
399.5
  0
VERTEX
  8
backvia
  10
265.5
  20
374.5
  0
VERTEX
  8
backvia
  10
234.5
  20
374.5
  0
VERTEX
  8
backvia
  10
234.5
  20
399.5
  0
SEQEND
  0
POLYLINE
  8
backvia
  70
1
  66
1
  0
VERTEX
  8
backvia
  10
234.5
  20
124.5
  0
VERTEX
  8
backvia
  10
265.5
  20
124.5
  0
VERTEX
  8
backvia
  10
265.5
  20
99.5
  0
VERTEX
  8
backvia
  10
234.5
  20
99.5
  0
VERTEX
  8
backvia
  10
234.5
  20
124.5
  0
SEQEND
  0
POLYLINE
  8
backvia
  70
1
  66
1
  0
VERTEX
  8
backvia
  10
279.716
  20
239.822
  0
VERTEX
  8
backvia
  10
281.131
  20
245.782
  0
VERTEX
  8
backvia
  10
281.623
  20
245.782
  0
VERTEX
  8
backvia
  10
281.623
  20
247.903
  0
VERTEX
  8
backvia
  10
283.038
  20
253.674
  0
VERTEX
  8
backvia
  10
283.486
  20
255.54
  0
VERTEX
  8
backvia
  10
283.732
  20
257.433
  0
VERTEX
  8
backvia
  10
284.031
  20
255.836
  0
VERTEX
  8
backvia
  10
284.646
  20
253.352
  0
VERTEX
  8
backvia
  10
285.991
  20
247.903
  0
VERTEX
  8
backvia
  10
281.623
  20
247.903
  0
VERTEX
  8
backvia
  10
281.623
  20
245.782
  0
VERTEX
  8
backvia
  10
286.518
  20
245.782
  0
VERTEX
  8
backvia
  10
288.021
  20
239.822
  0
VERTEX
  8
backvia
  10
289.963
  20
239.822
  0
VERTEX
  8
backvia
  10
284.69
  20
259.5
  0
VERTEX
  8
backvia
  10
282.853
  20
259.5
  0
VERTEX
  8
backvia
  10
277.906
  20
239.822
  0
VERTEX
  8
backvia
  10
279.716
  20
239.822
  0
SEQEND
  0
POLYLINE
  8
backvia
  70
1
  66
1
  0
VERTEX
  8
backvia
  10
229.279
  20
239.822
  0
VERTEX
  8
backvia
  10
229.279
  20
257.178
  0
VERTEX
  8
backvia
  10
233.541
  20
257.178
  0
VERTEX
  8
backvia
  10
233.541
  20
259.5
  0
VERTEX
  8
backvia
  10
223.33
  20
259.5
  0
VERTEX
  8
backvia
  10
223.33
  20
257.178
  0
VERTEX
  8
backvia
  10
227.574
  20
257.178
  0
VERTEX
  8
backvia
  10
227.574
  20
239.822
  0
VERTEX
  8
backvia
  10
229.279
  20
239.822
  0
SEQEND
  0
POLYLINE
  8
backvia
  70
1
  66
1
  0
VERTEX
  8
backvia
  10
197.906
  20
239.822
  0
VERTEX
  8
backvia
  10
197.906
  20
255.285
  0
VERTEX
  8
backvia
  10
204.672
  20
239.822
  0
VERTEX
  8
backvia
  10
206.421
  20
239.822
  0
VERTEX
  8
backvia
  10
206.421
  20
259.5
  0
VERTEX
  8
backvia
  10
204.787
  20
259.5
  0
VERTEX
  8
backvia
  10
204.787
  20
244.05
  0
VERTEX
  8
backvia
  10
198.02
  20
259.5
  0
VERTEX
  8
backvia
  10
196.271
  20
259.5
  0
VERTEX
  8
backvia
  10
196.271
  20
239.822
  0
VERTEX
  8
backvia
  10
197.906
  20
239.822
  0
SEQEND
  0
POLYLINE
  8
backvia
  70
1
  66
1
  0
VERTEX
  8
backvia
  10
265.69
  20
239.822
  0
VERTEX
  8
backvia
  10
265.69
  20
247.621
  0
VERTEX
  8
backvia
  10
265.69
  20
249.299
  0
VERTEX
  8
backvia
  10
265.954
  20
250.252
  0
VERTEX
  8
backvia
  10
266.217
  20
251.205
  0
VERTEX
  8
backvia
  10
266.837
  20
251.762
  0
VERTEX
  8
backvia
  10
267.456
  20
252.319
  0
VERTEX
  8
backvia
  10
268.159
  20
252.319
  0
VERTEX
  8
backvia
  10
269.1
  20
252.319
  0
VERTEX
  8
backvia
  10
269.614
  20
251.493
  0
VERTEX
  8
backvia
  10
270.128
  20
250.668
  0
VERTEX
  8
backvia
  10
270.128
  20
248.856
  0
VERTEX
  8
backvia
  10
270.128
  20
239.822
  0
VERTEX
  8
backvia
  10
271.71
  20
239.822
  0
VERTEX
  8
backvia
  10
271.71
  20
248.856
  0
VERTEX
  8
backvia
  10
271.71
  20
250.95
  0
VERTEX
  8
backvia
  10
271.38
  20
252.05
  0
VERTEX
  8
backvia
  10
271.051
  20
253.151
  0
VERTEX
  8
backvia
  10
270.286
  20
253.775
  0
VERTEX
  8
backvia
  10
269.522
  20
254.399
  0
VERTEX
  8
backvia
  10
268.485
  20
254.399
  0
VERTEX
  8
backvia
  10
266.797
  20
254.399
  0
VERTEX
  8
backvia
  10
265.69
  20
252.44
  0
VERTEX
  8
backvia
  10
265.69
  20
259.5
  0
VERTEX
  8
backvia
  10
264.108
  20
259.5
  0
VERTEX
  8
backvia
  10
264.108
  20
239.822
  0
VERTEX
  8
backvia
  10
265.69
  20
239.822
  0
SEQEND
  0
POLYLINE
  8
backvia
  70
1
  66
1
  0
VERTEX
  8
backvia
  10
208.495
  20
243.339
  0
VERTEX
  8
backvia
  10
209.703
  20
241.419
  0
VERTEX
  8
backvia
  10
210.121
  20
240.756
  0
VERTEX
  8
backvia
  10
210.121
  20
244.211
  0
VERTEX
  8
backvia
  10
210.121
  20
246.95
  0
VERTEX
  8
backvia
  10
210.121
  20
249.688
  0
VERTEX
  8
backvia
  10
210.903
  20
251.044
  0
VERTEX
  8
backvia
  10
211.685
  20
252.399
  0
VERTEX
  8
backvia
  10
212.872
  20
252.399
  0
VERTEX
  8
backvia
  10
214.04
  20
252.399
  0
VERTEX
  8
backvia
  10
214.827
  20
251.037
  0
VERTEX
  8
backvia
  10
215.614
  20
249.675
  0
VERTEX
  8
backvia
  10
215.614
  20
247.03
  0
VERTEX
  8
backvia
  10
215.614
  20
244.225
  0
VERTEX
  8
backvia
  10
214.831
  20
242.856
  0
VERTEX
  8
backvia
  10
214.049
  20
241.487
  0
VERTEX
  8
backvia
  10
212.872
  20
241.487
  0
VERTEX
  8
backvia
  10
211.685
  20
241.487
  0
VERTEX
  8
backvia
  10
210.903
  20
242.849
  0
VERTEX
  8
backvia
  10
210.121
  20
244.211
  0
VERTEX
  8
backvia
  10
210.121
  20
240.756
  0
VERTEX
  8
backvia
  10
210.912
  20
239.5
  0
VERTEX
  8
backvia
  10
212.872
  20
239.5
  0
VERTEX
  8
backvia
  10
214.093
  20
239.5
  0
VERTEX
  8
backvia
  10
215.126
  20
240.372
  0
VERTEX
  8
backvia
  10
216.158
  20
241.245
  0
VERTEX
  8
backvia
  10
216.699
  20
242.822
  0
VERTEX
  8
backvia
  10
217.239
  20
244.399
  0
VERTEX
  8
backvia
  10
217.239
  20
247.151
  0
VERTEX
  8
backvia
  10
217.239
  20
250.547
  0
VERTEX
  8
backvia
  10
216.018
  20
252.473
  0
VERTEX
  8
backvia
  10
214.796
  20
254.399
  0
VERTEX
  8
backvia
  10
212.872
  20
254.399
  0
VERTEX
  8
backvia
  10
211.14
  20
254.399
  0
VERTEX
  8
backvia
  10
209.936
  20
252.815
  0
VERTEX
  8
backvia
  10
208.495
  20
250.909
  0
VERTEX
  8
backvia
  10
208.495
  20
246.95
  0
VERTEX
  8
backvia
  10
208.495
  20
243.339
  0
SEQEND
  0
POLYLINE
  8
backvia
  70
1
  66
1
  0
VERTEX
  8
backvia
  10
234.5
  20
243.339
  0
VERTEX
  8
backvia
  10
235.709
  20
241.419
  0
VERTEX
  8
backvia
  10
236.126
  20
240.756
  0
VERTEX
  8
backvia
  10
236.126
  20
244.211
  0
VERTEX
  8
backvia
  10
236.126
  20
246.95
  0
VERTEX
  8
backvia
  10
236.126
  20
249.688
  0
VERTEX
  8
backvia
  10
236.908
  20
251.044
  0
VERTEX
  8
backvia
  10
237.69
  20
252.399
  0
VERTEX
  8
backvia
  10
238.877
  20
252.399
  0
VERTEX
  8
backvia
  10
240.045
  20
252.399
  0
VERTEX
  8
backvia
  10
240.832
  20
251.037
  0
VERTEX
  8
backvia
  10
241.619
  20
249.675
  0
VERTEX
  8
backvia
  10
241.619
  20
247.03
  0
VERTEX
  8
backvia
  10
241.619
  20
244.225
  0
VERTEX
  8
backvia
  10
240.836
  20
242.856
  0
VERTEX
  8
backvia
  10
240.054
  20
241.487
  0
VERTEX
  8
backvia
  10
238.877
  20
241.487
  0
VERTEX
  8
backvia
  10
237.69
  20
241.487
  0
VERTEX
  8
backvia
  10
236.908
  20
242.849
  0
VERTEX
  8
backvia
  10
236.126
  20
244.211
  0
VERTEX
  8
backvia
  10
236.126
  20
240.756
  0
VERTEX
  8
backvia
  10
236.917
  20
239.5
  0
VERTEX
  8
backvia
  10
238.877
  20
239.5
  0
VERTEX
  8
backvia
  10
240.098
  20
239.5
  0
VERTEX
  8
backvia
  10
241.131
  20
240.372
  0
VERTEX
  8
backvia
  10
242.163
  20
241.245
  0
VERTEX
  8
backvia
  10
242.704
  20
242.822
  0
VERTEX
  8
backvia
  10
243.244
  20
244.399
  0
VERTEX
  8
backvia
  10
243.244
  20
247.151
  0
VERTEX
  8
backvia
  10
243.244
  20
250.547
  0
VERTEX
  8
backvia
  10
242.023
  20
252.473
  0
VERTEX
  8
backvia
  10
240.801
  20
254.399
  0
VERTEX
  8
backvia
  10
238.877
  20
254.399
  0
VERTEX
  8
backvia
  10
237.145
  20
254.399
  0
VERTEX
  8
backvia
  10
235.941
  20
252.815
  0
VERTEX
  8
backvia
  10
234.5
  20
250.909
  0
VERTEX
  8
backvia
  10
234.5
  20
246.95
  0
VERTEX
  8
backvia
  10
234.5
  20
243.339
  0
SEQEND
  0
POLYLINE
  8
backvia
  70
1
  66
1
  0
VERTEX
  8
backvia
  10
303.145
  20
242.883
  0
VERTEX
  8
backvia
  10
302.53
  20
242.185
  0
VERTEX
  8
backvia
  10
301.915
  20
241.487
  0
VERTEX
  8
backvia
  10
301.045
  20
241.487
  0
VERTEX
  8
backvia
  10
299.876
  20
241.487
  0
VERTEX
  8
backvia
  10
299.094
  20
242.735
  0
VERTEX
  8
backvia
  10
298.312
  20
243.983
  0
VERTEX
  8
backvia
  10
298.224
  20
246.332
  0
VERTEX
  8
backvia
  10
298.312
  20
246.332
  0
VERTEX
  8
backvia
  10
298.312
  20
248.319
  0
VERTEX
  8
backvia
  10
298.391
  20
250.185
  0
VERTEX
  8
backvia
  10
299.133
  20
251.299
  0
VERTEX
  8
backvia
  10
299.876
  20
252.413
  0
VERTEX
  8
backvia
  10
300.966
  20
252.413
  0
VERTEX
  8
backvia
  10
302.17
  20
252.413
  0
VERTEX
  8
backvia
  10
302.926
  20
251.017
  0
VERTEX
  8
backvia
  10
303.418
  20
250.117
  0
VERTEX
  8
backvia
  10
303.523
  20
248.319
  0
VERTEX
  8
backvia
  10
298.312
  20
248.319
  0
VERTEX
  8
backvia
  10
298.312
  20
246.332
  0
VERTEX
  8
backvia
  10
305.184
  20
246.332
  0
VERTEX
  8
backvia
  10
305.193
  20
246.762
  0
VERTEX
  8
backvia
  10
305.193
  20
246.976
  0
VERTEX
  8
backvia
  10
305.193
  20
250.507
  0
VERTEX
  8
backvia
  10
304.007
  20
252.453
  0
VERTEX
  8
backvia
  10
302.82
  20
254.399
  0
VERTEX
  8
backvia
  10
300.948
  20
254.399
  0
VERTEX
  8
backvia
  10
299.015
  20
254.399
  0
VERTEX
  8
backvia
  10
297.802
  20
252.413
  0
VERTEX
  8
backvia
  10
296.589
  20
250.426
  0
VERTEX
  8
backvia
  10
296.589
  20
246.829
  0
VERTEX
  8
backvia
  10
296.589
  20
243.352
  0
VERTEX
  8
backvia
  10
297.789
  20
241.426
  0
VERTEX
  8
backvia
  10
298.988
  20
239.5
  0
VERTEX
  8
backvia
  10
301.036
  20
239.5
  0
VERTEX
  8
backvia
  10
302.662
  20
239.5
  0
VERTEX
  8
backvia
  10
303.708
  20
240.708
  0
VERTEX
  8
backvia
  10
304.753
  20
241.916
  0
VERTEX
  8
backvia
  10
305.14
  20
244.104
  0
VERTEX
  8
backvia
  10
303.506
  20
244.413
  0
VERTEX
  8
backvia
  10
303.145
  20
242.883
  0
SEQEND
  0
POLYLINE
  8
backvia
  70
1
  66
1
  0
VERTEX
  8
backvia
  10
313.287
  20
240.574
  0
VERTEX
  8
backvia
  10
313.533
  20
239.822
  0
VERTEX
  8
backvia
  10
315.185
  20
239.822
  0
VERTEX
  8
backvia
  10
314.886
  20
240.641
  0
VERTEX
  8
backvia
  10
314.785
  20
241.534
  0
VERTEX
  8
backvia
  10
314.684
  20
242.426
  0
VERTEX
  8
backvia
  10
314.684
  20
245.795
  0
VERTEX
  8
backvia
  10
314.684
  20
249.017
  0
VERTEX
  8
backvia
  10
314.684
  20
250.628
  0
VERTEX
  8
backvia
  10
314.605
  20
251.245
  0
VERTEX
  8
backvia
  10
314.464
  20
252.238
  0
VERTEX
  8
backvia
  10
314.113
  20
252.889
  0
VERTEX
  8
backvia
  10
313.761
  20
253.54
  0
VERTEX
  8
backvia
  10
313.014
  20
253.97
  0
VERTEX
  8
backvia
  10
312.267
  20
254.399
  0
VERTEX
  8
backvia
  10
311.072
  20
254.399
  0
VERTEX
  8
backvia
  10
309.868
  20
254.399
  0
VERTEX
  8
backvia
  10
308.954
  20
253.896
  0
VERTEX
  8
backvia
  10
308.04
  20
253.393
  0
VERTEX
  8
backvia
  10
307.557
  20
252.46
  0
VERTEX
  8
backvia
  10
307.073
  20
251.527
  0
VERTEX
  8
backvia
  10
306.862
  20
250.01
  0
VERTEX
  8
backvia
  10
308.409
  20
249.688
  0
VERTEX
  8
backvia
  10
308.664
  20
251.205
  0
VERTEX
  8
backvia
  10
309.196
  20
251.802
  0
VERTEX
  8
backvia
  10
309.727
  20
252.399
  0
VERTEX
  8
backvia
  10
310.843
  20
252.399
  0
VERTEX
  8
backvia
  10
312.039
  20
252.399
  0
VERTEX
  8
backvia
  10
312.645
  20
251.581
  0
VERTEX
  8
backvia
  10
313.093
  20
250.976
  0
VERTEX
  8
backvia
  10
313.093
  20
249.5
  0
VERTEX
  8
backvia
  10
313.093
  20
249.366
  0
VERTEX
  8
backvia
  10
313.084
  20
248.869
  0
VERTEX
  8
backvia
  10
312.179
  20
248.386
  0
VERTEX
  8
backvia
  10
310.263
  20
248.037
  0
VERTEX
  8
backvia
  10
309.323
  20
247.862
  0
VERTEX
  8
backvia
  10
308.857
  20
247.674
  0
VERTEX
  8
backvia
  10
308.225
  20
247.406
  0
VERTEX
  8
backvia
  10
307.719
  20
246.883
  0
VERTEX
  8
backvia
  10
307.214
  20
246.359
  0
VERTEX
  8
backvia
  10
306.902
  20
245.493
  0
VERTEX
  8
backvia
  10
306.59
  20
244.627
  0
VERTEX
  8
backvia
  10
306.59
  20
243.581
  0
VERTEX
  8
backvia
  10
306.59
  20
241.795
  0
VERTEX
  8
backvia
  10
307.416
  20
240.648
  0
VERTEX
  8
backvia
  10
308.242
  20
239.5
  0
VERTEX
  8
backvia
  10
308.277
  20
239.5
  0
VERTEX
  8
backvia
  10
308.277
  20
242.681
  0
VERTEX
  8
backvia
  10
308.277
  20
243.648
  0
VERTEX
  8
backvia
  10
308.277
  20
244.279
  0
VERTEX
  8
backvia
  10
308.497
  20
244.795
  0
VERTEX
  8
backvia
  10
308.717
  20
245.312
  0
VERTEX
  8
backvia
  10
309.121
  20
245.581
  0
VERTEX
  8
backvia
  10
309.525
  20
245.849
  0
VERTEX
  8
backvia
  10
310.501
  20
246.064
  0
VERTEX
  8
backvia
  10
312.223
  20
246.44
  0
VERTEX
  8
backvia
  10
313.084
  20
246.976
  0
VERTEX
  8
backvia
  10
313.084
  20
246.091
  0
VERTEX
  8
backvia
  10
313.084
  20
244.493
  0
VERTEX
  8
backvia
  10
312.83
  20
243.674
  0
VERTEX
  8
backvia
  10
312.496
  20
242.614
  0
VERTEX
  8
backvia
  10
311.784
  20
242.003
  0
VERTEX
  8
backvia
  10
311.072
  20
241.393
  0
VERTEX
  8
backvia
  10
310.158
  20
241.393
  0
VERTEX
  8
backvia
  10
309.235
  20
241.393
  0
VERTEX
  8
backvia
  10
308.756
  20
242.037
  0
VERTEX
  8
backvia
  10
308.277
  20
242.681
  0
VERTEX
  8
backvia
  10
308.277
  20
239.5
  0
VERTEX
  8
backvia
  10
309.78
  20
239.5
  0
VERTEX
  8
backvia
  10
310.712
  20
239.5
  0
VERTEX
  8
backvia
  10
311.525
  20
239.97
  0
VERTEX
  8
backvia
  10
312.337
  20
240.44
  0
VERTEX
  8
backvia
  10
313.216
  20
241.581
  0
VERTEX
  8
backvia
  10
313.287
  20
240.574
  0
SEQEND
  0
POLYLINE
  8
backvia
  70
1
  66
1
  0
VERTEX
  8
backvia
  10
261.031
  20
243.232
  0
VERTEX
  8
backvia
  10
260.407
  20
242.359
  0
VERTEX
  8
backvia
  10
259.783
  20
241.487
  0
VERTEX
  8
backvia
  10
258.852
  20
241.487
  0
VERTEX
  8
backvia
  10
257.692
  20
241.487
  0
VERTEX
  8
backvia
  10
256.971
  20
242.789
  0
VERTEX
  8
backvia
  10
256.25
  20
244.091
  0
VERTEX
  8
backvia
  10
256.25
  20
246.963
  0
VERTEX
  8
backvia
  10
256.25
  20
249.795
  0
VERTEX
  8
backvia
  10
256.997
  20
251.104
  0
VERTEX
  8
backvia
  10
257.744
  20
252.413
  0
VERTEX
  8
backvia
  10
258.94
  20
252.413
  0
VERTEX
  8
backvia
  10
259.731
  20
252.413
  0
VERTEX
  8
backvia
  10
260.289
  20
251.688
  0
VERTEX
  8
backvia
  10
260.847
  20
250.963
  0
VERTEX
  8
backvia
  10
261.066
  20
249.527
  0
VERTEX
  8
backvia
  10
262.604
  20
249.889
  0
VERTEX
  8
backvia
  10
262.332
  20
252.05
  0
VERTEX
  8
backvia
  10
261.365
  20
253.225
  0
VERTEX
  8
backvia
  10
260.398
  20
254.399
  0
VERTEX
  8
backvia
  10
258.878
  20
254.399
  0
VERTEX
  8
backvia
  10
257.674
  20
254.399
  0
VERTEX
  8
backvia
  10
256.65
  20
253.534
  0
VERTEX
  8
backvia
  10
255.626
  20
252.668
  0
VERTEX
  8
backvia
  10
255.126
  20
250.936
  0
VERTEX
  8
backvia
  10
254.625
  20
249.205
  0
VERTEX
  8
backvia
  10
254.625
  20
246.896
  0
VERTEX
  8
backvia
  10
254.625
  20
243.326
  0
VERTEX
  8
backvia
  10
255.789
  20
241.413
  0
VERTEX
  8
backvia
  10
256.953
  20
239.5
  0
VERTEX
  8
backvia
  10
258.869
  20
239.5
  0
VERTEX
  8
backvia
  10
260.398
  20
239.5
  0
VERTEX
  8
backvia
  10
261.449
  20
240.889
  0
VERTEX
  8
backvia
  10
262.499
  20
242.279
  0
VERTEX
  8
backvia
  10
262.754
  20
244.735
  0
VERTEX
  8
backvia
  10
261.198
  20
245.044
  0
VERTEX
  8
backvia
  10
261.031
  20
243.232
  0
SEQEND
  0
POLYLINE
  8
backvia
  70
1
  66
1
  0
VERTEX
  8
backvia
  10
316.766
  20
241.809
  0
VERTEX
  8
backvia
  10
317.72
  20
240.654
  0
VERTEX
  8
backvia
  10
318.674
  20
239.5
  0
VERTEX
  8
backvia
  10
320.493
  20
239.5
  0
VERTEX
  8
backvia
  10
321.591
  20
239.5
  0
VERTEX
  8
backvia
  10
322.461
  20
240.084
  0
VERTEX
  8
backvia
  10
323.331
  20
240.668
  0
VERTEX
  8
backvia
  10
323.793
  20
241.735
  0
VERTEX
  8
backvia
  10
324.254
  20
242.802
  0
VERTEX
  8
backvia
  10
324.254
  20
244.01
  0
VERTEX
  8
backvia
  10
324.254
  20
245.245
  0
VERTEX
  8
backvia
  10
323.876
  20
246.077
  0
VERTEX
  8
backvia
  10
323.498
  20
246.909
  0
VERTEX
  8
backvia
  10
322.835
  20
247.346
  0
VERTEX
  8
backvia
  10
322.171
  20
247.782
  0
VERTEX
  8
backvia
  10
320.493
  20
248.466
  0
VERTEX
  8
backvia
  10
319.333
  20
248.95
  0
VERTEX
  8
backvia
  10
319.095
  20
249.084
  0
VERTEX
  8
backvia
  10
318.682
  20
249.339
  0
VERTEX
  8
backvia
  10
318.489
  20
249.728
  0
VERTEX
  8
backvia
  10
318.296
  20
250.104
  0
VERTEX
  8
backvia
  10
318.296
  20
250.574
  0
VERTEX
  8
backvia
  10
318.296
  20
251.312
  0
VERTEX
  8
backvia
  10
318.761
  20
251.862
  0
VERTEX
  8
backvia
  10
319.227
  20
252.413
  0
VERTEX
  8
backvia
  10
320.317
  20
252.413
  0
VERTEX
  8
backvia
  10
321.24
  20
252.413
  0
VERTEX
  8
backvia
  10
321.745
  20
251.795
  0
VERTEX
  8
backvia
  10
322.25
  20
251.178
  0
VERTEX
  8
backvia
  10
322.356
  20
250.077
  0
VERTEX
  8
backvia
  10
323.902
  20
250.399
  0
VERTEX
  8
backvia
  10
323.753
  20
251.782
  0
VERTEX
  8
backvia
  10
323.358
  20
252.607
  0
VERTEX
  8
backvia
  10
322.962
  20
253.433
  0
VERTEX
  8
backvia
  10
322.132
  20
253.916
  0
VERTEX
  8
backvia
  10
321.301
  20
254.399
  0
VERTEX
  8
backvia
  10
320.203
  20
254.399
  0
VERTEX
  8
backvia
  10
319.473
  20
254.399
  0
VERTEX
  8
backvia
  10
318.836
  20
254.111
  0
VERTEX
  8
backvia
  10
318.199
  20
253.822
  0
VERTEX
  8
backvia
  10
317.83
  20
253.406
  0
VERTEX
  8
backvia
  10
317.338
  20
252.869
  0
VERTEX
  8
backvia
  10
317.052
  20
252.057
  0
VERTEX
  8
backvia
  10
316.766
  20
251.245
  0
VERTEX
  8
backvia
  10
316.766
  20
250.292
  0
VERTEX
  8
backvia
  10
316.766
  20
249.245
  0
VERTEX
  8
backvia
  10
317.114
  20
248.379
  0
VERTEX
  8
backvia
  10
317.461
  20
247.513
  0
VERTEX
  8
backvia
  10
318.133
  20
247.023
  0
VERTEX
  8
backvia
  10
318.805
  20
246.534
  0
VERTEX
  8
backvia
  10
320.545
  20
245.862
  0
VERTEX
  8
backvia
  10
321.837
  20
245.366
  0
VERTEX
  8
backvia
  10
322.162
  20
245.044
  0
VERTEX
  8
backvia
  10
322.628
  20
244.574
  0
VERTEX
  8
backvia
  10
322.628
  20
243.755
  0
VERTEX
  8
backvia
  10
322.628
  20
242.842
  0
VERTEX
  8
backvia
  10
322.101
  20
242.164
  0
VERTEX
  8
backvia
  10
321.574
  20
241.487
  0
VERTEX
  8
backvia
  10
320.484
  20
241.487
  0
VERTEX
  8
backvia
  10
319.403
  20
241.487
  0
VERTEX
  8
backvia
  10
318.801
  20
242.252
  0
VERTEX
  8
backvia
  10
318.199
  20
243.017
  0
VERTEX
  8
backvia
  10
318.067
  20
244.453
  0
VERTEX
  8
backvia
  10
316.503
  20
244.077
  0
VERTEX
  8
backvia
  10
316.766
  20
241.809
  0
SEQEND
  0
POLYLINE
  8
backvia
  70
1
  66
1
  0
VERTEX
  8
backvia
  10
252.63
  20
239.822
  0
VERTEX
  8
backvia
  10
252.63
  20
254.077
  0
VERTEX
  8
backvia
  10
251.048
  20
254.077
  0
VERTEX
  8
backvia
  10
251.048
  20
246.44
  0
VERTEX
  8
backvia
  10
251.048
  20
244.614
  0
VERTEX
  8
backvia
  10
250.789
  20
243.654
  0
VERTEX
  8
backvia
  10
250.53
  20
242.695
  0
VERTEX
  8
backvia
  10
249.906
  20
242.138
  0
VERTEX
  8
backvia
  10
249.282
  20
241.581
  0
VERTEX
  8
backvia
  10
248.57
  20
241.581
  0
VERTEX
  8
backvia
  10
247.858
  20
241.581
  0
VERTEX
  8
backvia
  10
247.375
  20
242.124
  0
VERTEX
  8
backvia
  10
246.891
  20
242.668
  0
VERTEX
  8
backvia
  10
246.742
  20
243.621
  0
VERTEX
  8
backvia
  10
246.645
  20
244.279
  0
VERTEX
  8
backvia
  10
246.645
  20
246.171
  0
VERTEX
  8
backvia
  10
246.645
  20
254.077
  0
VERTEX
  8
backvia
  10
245.063
  20
254.077
  0
VERTEX
  8
backvia
  10
245.063
  20
245.245
  0
VERTEX
  8
backvia
  10
245.063
  20
243.701
  0
VERTEX
  8
backvia
  10
245.16
  20
242.99
  0
VERTEX
  8
backvia
  10
245.301
  20
241.93
  0
VERTEX
  8
backvia
  10
245.648
  20
241.198
  0
VERTEX
  8
backvia
  10
245.995
  20
240.466
  0
VERTEX
  8
backvia
  10
246.711
  20
239.983
  0
VERTEX
  8
backvia
  10
247.427
  20
239.5
  0
VERTEX
  8
backvia
  10
248.253
  20
239.5
  0
VERTEX
  8
backvia
  10
250.125
  20
239.5
  0
VERTEX
  8
backvia
  10
251.215
  20
241.916
  0
VERTEX
  8
backvia
  10
251.215
  20
239.822
  0
VERTEX
  8
backvia
  10
252.63
  20
239.822
  0
SEQEND
  0
POLYLINE
  8
backvia
  70
1
  66
1
  0
VERTEX
  8
backvia
  10
292.687
  20
239.822
  0
VERTEX
  8
backvia
  10
292.687
  20
247.285
  0
VERTEX
  8
backvia
  10
292.687
  20
248.815
  0
VERTEX
  8
backvia
  10
292.95
  20
250.104
  0
VERTEX
  8
backvia
  10
293.126
  20
250.95
  0
VERTEX
  8
backvia
  10
293.539
  20
251.426
  0
VERTEX
  8
backvia
  10
293.952
  20
251.903
  0
VERTEX
  8
backvia
  10
294.471
  20
251.903
  0
VERTEX
  8
backvia
  10
295.051
  20
251.903
  0
VERTEX
  8
backvia
  10
295.631
  20
251.379
  0
VERTEX
  8
backvia
  10
296.176
  20
253.621
  0
VERTEX
  8
backvia
  10
295.35
  20
254.399
  0
VERTEX
  8
backvia
  10
294.55
  20
254.399
  0
VERTEX
  8
backvia
  10
293.996
  20
254.399
  0
VERTEX
  8
backvia
  10
293.535
  20
253.916
  0
VERTEX
  8
backvia
  10
293.073
  20
253.433
  0
VERTEX
  8
backvia
  10
292.529
  20
251.916
  0
VERTEX
  8
backvia
  10
292.529
  20
254.077
  0
VERTEX
  8
backvia
  10
291.105
  20
254.077
  0
VERTEX
  8
backvia
  10
291.105
  20
239.822
  0
VERTEX
  8
backvia
  10
292.687
  20
239.822
  0
SEQEND
  0
ENDSEC
  0
EOF
